» » »

Me Gusta La Soledad" Tabs (ver.1)

Artists:  A B C D E F G H I J K L M N O P Q R S T U V W X Y Z # 

Me Gusta La Soledad" Tabs (ver.1)

Ill Nino
Rating:
0/5 (0 votes)

Hard to play? Try these video lessons and learn fast.
                This song is fairly easy and is in D major
Im tabbing this in standard tuningand without a capo but if its requested I will 
do one in, well any tuning :)

Here are the basic chords for the intro...G major is high for ease of playing.

D major| A major 4th|G major|
       |            |       |
e|-5---|-----5------|---10--|------------------------------5|
B|-7---|-----5------|---12--|------------------------------7|
G|-7---|-----6------|---12--|-12/11--11-11/9-9-9/7-7-7/6-6-7|
D|-7---|-----7------|---12--|------11-------9-----7-----7--7|
A|-5---|-----5------|---10--|-10/9-------9/7---7/5---5/4---5|
E|-----|-----5------|-------|-------------------------------|
The finger picking over these is just arpegios so easy :)

Then @ 0:43                                @1:01  
A major| B minor| A major| B minor| A major|        
e|-5---|----7---|---5----|----7---|---5----|--------------|
B|-5---|----7---|---5----|----7---|---5----|--------------|
G|-6---|----7---|---6----|----7---|---6----|-12-11-9-12119|
D|-7---|----9---|---7----|----9---|---7----|--------------|
A|-7---|----9---|---7----|----9---|---7----|-10--9-7-10-97|
E|-5---|----7---|---5----|----7---|---9----|--------------|

Here the song just repeats till 2:58 were there is a key change its either G major or G lydian.

The chords are just
G major |D major| G major| E minor| 
e|--3---|---2---|----3---|----0---|
B|--3---|---3---|----3---|----0---|
G|--0---|---2---|----0---|----0---| repeat this alot
D|--0---|---0---|----0---|----2---|
A|--2---|-------|----2---|----2---|
E|--3---|-------|----3---|----0---|

@ 3:37
e|--------------|
B|--------------|
G|-12-11-9-12119| Bacck to other chords and end on a nice D major :D
D|--------------|
A|-10--9-7-10-97|
E|--------------|
            
Hard to play? Try these video lessons and learn fast. | Correct




comments powered by Disqus
↑ Back to top | Tablatures and chords are parodies/interpretations of the original songs. You may use it for private study, scholarship, research or language learning purposes only