» » »

Ill Nino, Lifeless Life Tabs (ver.2)

Artists:  A B C D E F G H I J K L M N O P Q R S T U V W X Y Z # 

Lifeless Life Tabs (ver.2)

Ill Nino Tabs
 Rating:
4/5 (4 votes)
Lifeless Life lessons Tabs too difficult? Try these video lessons and learn fast
                Tuning: Drop C (C G C F A D)

*- palm mute
this is off of their newest cd Confessions, here it goes.

Intro...Your a te da lo co hase(i dont know what he says its spanish)
Guitar 2(clean)
D|------------------||
A|------------------||
F|------------------||
C|--2-----1---------||
G|--2-----1---------||
C|-0---0-0----------||

Verse (i just need...
Guitar 1 (listen for in background.)
D|------------------||
A|------------------||
F|------------------||
C|------------------||
G|------------------||
C|-0--0--2----------||
   *  *  *
Guitar 2
D|-------------------------------------||
A|-1-1-1-1-0-0-0-0-0-------------------||
F|--2-2-2-2-2-2-2-2-2------------------||
C|-------------------------------------||
G|-------------------------------------||
C|-------------------------------------||

then, before chorus Guitar 2 goes
D|------------------||
A|------------------||
F|-5----------------||
C|-x--<8 times------||
G|-3----------------||
C|------------------||

Chorus

...I make you feel like...
play 2 times
Guitars 1 & 2
D|---------------------------------------------------------------------------||
A|---------------------------------------------------------------------------||
F|---------------------------------------------------------------------------||
C|-0-0-2-0-0-2-0-0-2--0-0-2-2--0-0-2-0-0-2-0-0--3-3-3-3----------------------||
G|-0-0-2-0-0-2-0-0-2--0-0-2-2--0-0-2-0-0-2-0-0--3-3-3-3----------------------||
C|-0-0-2-0-0-2-0-0-2--0-0-2-2--0-0-2-0-0-2-0-0--3-3-3-3----------------------||

My drug...
Guitars 1 & 2
D|-------------------------------------------------------------------||
A|-------------------------------------------------------------------||
F|-------------------------------------------------------------------||
C|-0-0-2-0-0-2--0-2--0-2---0-0-2-0-0-2--3-3-3-3----------------------||
G|-0-0-2-0-0-2--0-2--0-2---0-0-2-0-0-2--3-3-3-3----------------------||
C|-0-0-2-0-0-2--0-2--0-2---0-0-2-0-0-2--3-3-3-3----------------------||
   * *   * *    *    *     * *   * *           
Fill
Guitar 1
D|-------------------------------------||
A|-------------------------------------||
F|-------------------------------------||
C|-0-0-2--0--0--0--0-0-2---------------||
G|-0-0-2--0--0--0--0-0-2---------------||
C|-0-0-2--0--0--0--0-0-2---------------||
   * * *  *  *  *  * * *

Same as 1st Verse

then same chorus

1:57
Guitar 1
D|-----------------------------------||
A|-----------------------------------||
F|-----------------------------------||
C|------------------------0----------||
G|------------------------0----------||
C|-0-<12 times...then...--0-<12 times||
   *                      *


Guitar 2
D|----------------------------------------------------------------||
A|----------------------------------------------------------------||
F|----------------------------------------------------------------||
C|-0-0-2-0-0-2-0-0-2--3-3-3-3----------------3-3-3-3--------------||
G|-0-0-2-0-0-2-0-0-2--3-3-3-3-last time play-3-3-3-3--------------||
C|-0-0-2-0-0-2-0-0-2--3-3-3-3----------------3-3-3-3--------------||
   * * * * * * * * *  * * * * 

Guitars 1 & 2(play through chorus and Life...Life...Lifeless...Life.)
D|---------------------------------------------------------------------------||
A|---------------------------------------------------------------------------||
F|---------------------------------------------------------------------------||
C|-0-0-2-0-0-2-0-0-2--0-0-2-2--0-0-2-0-0-2-0-0--3-3-3-3----------------------||
G|-0-0-2-0-0-2-0-0-2--0-0-2-2--0-0-2-0-0-2-0-0--3-3-3-3----------------------||
C|-0-0-2-0-0-2-0-0-2--0-0-2-2--0-0-2-0-0-2-0-0--3-3-3-3----------------------||
            
Submit corrections

comments powered by Disqus
↑ Back to top | Ill Nino Tabs for Lifeless Life. Lyrics for acoustic guitar and electric guitar. Tablatures and chords are parodies/interpretations of the original songs. You may use it for private study, scholarship, research or language learning purposes only