>
 >
La Liberacion

La Liberacion Guitar Tabs

Ill Nino - La Liberacion chords, tabs, tablatures, lyrics

Guitar lessons | Add/correct | Request | Top 50 tabs Artists:  A B C D E F G H I J K L M N O P Q R S T U V W X Y Z 0-9

La Liberacion Guitar Tabs – Ill Nino

CD, Sheet music, Poster

Do you like La Liberacion? Share with your friends now
Tabs
Ill Niņo - La Liberacion Of Our Awakening
Questions/corrections: webmaster[at]illninoworld[dot]com

TUNED: drop C   (C,G,C,F,A,D)

* = Pinch Harmonic
p = Pull Off
h = Hammer On
. = Palm Mute


INTRO
guitar 1:
-10-----------------------------------|
-10------10-------10----10-------10---|
--7-------7--------7-----7--------7---|
--7-----------------------------------|
--------------------------------------|
--------------------------------------|  4x

guitar 2
-----------------------------|
----------------10----10-----|
---7-87---7-87-----87----878-|
-----------------------------|
-----------------------------|
-----------------------------|  4x


VERSE

guitar 1:
-10-----------------------------------|
-10------10-------10----10-------10---|
--7-------7--------7-----7--------7---|
--7-----------------------------------|
--------------------------------------|
--------------------------------------|  4x

guitar 2:
-----------------------------|
----------------10----10-----|
---7-87---7-87-----87----878-|
-----------------------------|
-----------------------------|
-----------------------------|  4x

guitar 3
-----------------------------|
-----------------------------|
-----------------------------|
-0-00----0-000---000---0-000-|
-0-00----0-000---000---0-000-|
-0-00----0-000---000---0-000-| 3x
 . ..    . ...   ...   . ...

-----------------------------|
-----------------------------|
-----------------------------|
-3-3-3-3-3-3-3-3-3-3-3-3-3-3-|
-3-3-3-3-3-3-3-3-3-3-3-3-3-3-|
-3-3-3-3-3-3-3-3-3-3-3-3-3-3-|


CHORUS
guitar 1                          2x |  8x |  8x |
-------------------------------------|-----|-----|
-------------------------------------|-----|-----|
-------14-14-14-14-------12-12-12-12-|-----|-----|
-0-0----x--x--x--x-0-0----x--x--x--x-|-8-8-|-7-7-|
-0-0---12-12-12-12-0-0---10-10-10-10-|-8-8-|-7-7-|
-0-0---------------0-0---------------|-8-8-|-7-7-|  2x
 .                 .

guitar 2
                              2x |13x | 3x |13x| 3x |
---------------------------------|----|----|---|----|
---------------------------------|----|----|---|----|
-------10-10-10-10-------9-9-9-9-|-10-|-12-|-9-|-10-|
-0-0----x--x--x--x-0-0---x-x-x-x-|--x-|--x-|-x-|--x-|
-0-0----8--8--8--8-0-0---7-7-7-7-|--8-|-10-|-7-|--8-|
-0-0---------------0-0-----------|----|----|---|----|  2x
 .                 .

a 3rd guitar plays this twice, at the last 16 notes:
-10----------------------|
----13-11-10-13-11-10----|
----------------------10-|
-------------------------|
-------------------------|
-------------------------|  2x


Verse


PRE-BRIDGE
---------------------------------------------------------|
---------------------------------------------------------|
---------------------------------------------------------|
-5-------------8-8-8-8-8-8-8-8-7-8-7-5-7-5-3-7-0---------|
-5-------------8-8-8-8-8-8-8-8-7-8-7-5-7-5-3-7-0---------|
-5-------------8-8-8-8-8-8-8-8-7-8-7-5-7-5-3-7-0---------|

BRIDGE
guitar 1
---------------------------------|
---------------------------------|
---------------------------------|
-0-------8-------5-------0-------|
-0-------8-------5-------0-------|
-0-------8-------5-------0-------| 8x

--------------------------|
--------------------------|
--------------------------|
-0-0-0--0---0-0--0--0-0-0-|
-0-0-0--0---0-0--0--0-0-0-|
-0-0-0--0---0-0--0--0-0-0-|
 . . .  .   . .  .  . . .

--------------------------------|
--------------------------------|
--------------------------------|
-0-0-0--0---0-8-7-5-7-5-3-5-3-2-|
-0-0-0--0---0-8-7-5-7-5-3-5-3-2-|
-0-0-0--0---0-8-7-5-7-5-3-5-3-2-|
 . . .  .   . . . . . . . . . .

guitar 2
--------------------------------------|
--------------------------------------|
--------9h10p9-------12--10-9-10-9----|
-12--------------------------------10-|
--------------------------------------|
--------------------------------------| 2x

----------------------------------------|
----------------------------------------|
--------10h12p10-------12--10-9-10-9----|
-------------------------------------10-|
-13-------------------------------------|
----------------------------------------|

--------------------------------------|
--------------------------------------|
--------9h10p9-------12--10-9-10-9----|
-12--------------------------------10-|
--------------------------------------|
--------------------------------------| 3x

----------------------------------------|
----------------------------------------|
--------10h12p10-------12--10-9-10-9----|
-------------------------------------10-|
-13-------------------------------------|
----------------------------------------|

--------------------------------------|
--------------------------------------|
--------9h10p9-------12--10-9-10-9----|
-12--------------------------------10-|
--------------------------------------|
--------------------------------------|

--------------------------|
--------------------------|
--------------------------|
-0-0-0--0---0-0--0--0-0-0-|
-0-0-0--0---0-0--0--0-0-0-|
-0-0-0--0---0-0--0--0-0-0-|
 . . .  .   . .  .  . . .

--------------------------------|
--------------------------------|
--------------------------------|
-0-0-0--0---0-8-7-5-7-5-3-5-3-2-|
-0-0-0--0---0-8-7-5-7-5-3-5-3-2-|
-0-0-0--0---0-8-7-5-7-5-3-5-3-2-|
 . . .  .   . . . . . . . . . .

guitar 3 after 4 times:
------------------------------------------|
------------------------------------------|
--------12h14p12-------15--14-12-14-12----|
-15------------------------------------14-|
------------------------------------------|
------------------------------------------| 2x

-------------------------------------------|
--------11h13p11---------------------------|
-----------------------15--14--12-14-12----|
-12-------------------------------------14-|
-------------------------------------------|
-------------------------------------------|

------------------------------------------|
------------------------------------------|
--------12h14p12-------15--14-12-14-12----|
-15------------------------------------14-|
------------------------------------------|
------------------------------------------| 3x

-------------------------------------------|
--------11h13p11---------------------------|
-----------------------15--14--12-14-12----|
-12-------------------------------------14-|
-------------------------------------------|
-------------------------------------------|

------------------------------------------|
------------------------------------------|
--------12h14p12-------15--14-12-14-12----|
-15------------------------------------14-|
------------------------------------------|
------------------------------------------|


Chorus


OUTRO
---------------------------------------------------------|
---------------------------------------------------------|
---------------------------------------------------------|
-5-------------8-8-8-8-8-8-8-8-7-8-7-5-7-5-3-7-0---------|
-5-------------8-8-8-8-8-8-8-8-7-8-7-5-7-5-3-7-0---------|
-5-------------8-8-8-8-8-8-8-8-7-8-7-5-7-5-3-7-0---------|





Comments


Popular Ill Nino tabs & chords
Rumba 2 Bass Tabs
Unreal Bass Tabs
Unreal 2 Bass Tabs
What Comes Around 2 Bass Tabs
What Comes Around Remix Bass Tabs
If You Still Hate Me 2 Tabs
Predisposed 1 Tabs
Rip Out Your Eyes 1 Tabs
The Art Of War Tabs
This Time's For Real Tabs


Song lyrics



↑ Back to top | Tablatures and chords are parodies/interpretations of the original songs. You may use it for private study, scholarship, research or language learning purposes only
© 2014 AZChords.com Contact us | Privacy policy | DMCA | Add/correct tabs | Request tabs | Top 50 tabs