>
 >
Killing You, Killing Me

Killing You, Killing Me Guitar Tabs

Ill Nino - Killing You, Killing Me chords, tabs, tablatures, lyrics

Guitar lessons | Add/correct | Request | Top 50 tabs Artists:  A B C D E F G H I J K L M N O P Q R S T U V W X Y Z 0-9

Killing You, Killing Me Guitar Tabs – Ill Nino

CD, Sheet music, Poster

Do you like Killing You, Killing Me? Share with your friends now
Tabs
Tempo = 
drop-a tuning (A E A D G B E)


INTRO

|gtr 1 (distortion guitar)
|------||--------------------|--------------------|
|------||--------------------|--------------------|
|------||--------------------|--------------------|
|------||--------------------|--------------------|
|------||--------------------|--------------------|
|------||--------------------|--------------------|
|--0-0-||-1p0----------------|----------------0-0-|
|  PM........                                 ...
|
|gtr 2 (acoustic)
|------||--------------------|--------------------|
|------||--------------------|--------------------|
|------||--------------------|--------------------|
|------||--887-7-7--7-777-7--|--887-7-7--7-777-7--|
|------||--887-7-7--7-777-7--|--887-7-7--7-777-7--|
|------||--665-5-5--5-555-5--|--665-5-5--5-555-5--|
|------||--------------------|--------------------|

|gtr 1 (distortion guitar)
|--------------------|-----------------------||
|--------------------|-----------------------||
|--------------------|-----------------------||
|--------------------|-----------------------||
|--------------------|-----------------------||
|--------------------|-----------------------||
|--1p0---------------|-------------------0-0-||
|  PM.                                   ...
|
|gtr 2 (acoustic)
|--------------------|-----------------------||
|--------------------|-----------------------||
|--------------------|-----------------------||
|--887-7-7--7-777-7--|--887-8810-111110-887--||
|--887-7-7--7-777-7--|--887-8810-111110-887--||
|--665-5-5--5-555-5--|--665-668--9-9-8--665--||
|--------------------|-----------------------||

|gtr 3
|-------------------------------------------------|
|-------------------------------------------------|
|--\9~-----7-9-\10~-----9-10-\12~-----10h12-10~---|
|-------------------------------------------------|
|-------------------------------------------------|
|-------------------------------------------------|
|-------------------------------------------------|


VERSE
|gtr 1 (4x)
|------------------------|    |-------------------|
|------------------------|    |-------------------|
|------------------------|    |-------------------|
|------------------------| 3x |-------------------|
|--1---------------------|    |-------------------|
|--3---------------------|    |-------------------|
|------0---1-1-0-0--0-0--|    |--1-0-1-3-4-3-1-0--|
       PM..............          ................


CHORUS
gtr 1 (4x)
|-----------------------------------------------|
|-----------------------------------------------|
|-----------------------------------------------|
|-----------------------------------5-----------|
|--5----------0----------1----------5-----------|
|--5----------0----------1----------3-----------|
|--5----------0----------1----------------------|

gtr 2 (2x)
|-----------------------------------------------|
|--6-----5-----8-----6-----5---6----------------|
|----7-7---7-7---7-7---7-7---7---7--------------|
|-----------------------------------------------|
|-----------------------------------------------|
|-----------------------------------------------|
|-----------------------------------------------|

|--5-------------------5-6-5--------------------|
|--------8-----8---6-8-------8-6-5--------------|
|----7-7---7-7---7------------------------------|
|-----------------------------------------------|
|-----------------------------------------------|
|-----------------------------------------------|
|-----------------------------------------------|


INTRO (1x)

VERSE (4x)


CHORUS
gtr 1 (4x)
|-----------------------------------------------|
|-----------------------------------------------|
|-----------------------------------------------|
|-----------------------------------5-----------|
|--5----------0----------1----------5-----------|
|--5----------0----------1----------3-----------|
|--5----------0----------1----------------------|

gtr 2 (2x)
|-----------------------------------------------|
|--6-----5-----8-----6-----5---6----------------|
|----7-7---7-7---7-7---7-7---7---7--------------|
|-----------------------------------------------|
|-----------------------------------------------|
|-----------------------------------------------|
|-----------------------------------------------|

|--5-------------------5-6-5--------------------|
|--------8-----8---6-8-------8-6-5--------------|
|----7-7---7-7---7------------------------------|
|-----------------------------------------------|
|-----------------------------------------------|
|-----------------------------------------------|
|-----------------------------------------------|

gtr 2 (second time - last part is different)
|--5-------------------5-6-5---5-6-5-----------------|
|--------8-----8---6-8-------8-------8-6-5-6-5-------|
|----7-7---7-7---7----------------------------7-5----|
|-------------------------------------------------7--|
|----------------------------------------------------|
|----------------------------------------------------|
|----------------------------------------------------|


BRIDGE pt1
gtr 1
|-----------------------------------------------|
|-----------------------------------------------|
|-----------------------------------------------|
|-----------------------------------------------|
|-----------------------------------------------|
|--0--0-0--0-0---------0-0-0--0-0--0-0--\5~-----|
|--0--0-0--0-0--1-0----0-0-0--0-0--0-0----------|
   PM.........         ...............

gtr 1
|--------------------------------------------------------|
|--------------------------------------------------------|
|--------------------------------------------------------|
|--------------------------------------------------------|
|---------------------------------------------4----------|
|--0--0-0--0-0---------0-0-0--0-0--0-0--6-5-6---6-5-6-5--|
|--0--0-0--0-0--1-0----0-0-0--0-0--0-0-------------------|
   PM.........         ...............

BRIDGE pt2
gtr 1 (4x) at 4th time play second part twice
|--------------------------------|------------------|
|--------------------------------|------------------|
|--------------------------------|------------------|
|--------------------------------|------------------|
|--------------------------------|-------4----------|
|-----------------3\5~-----------|-6-5-6---6-5-6-5--|
|--1-0--1-0--1-0--------1-0--1-0-|------------------|


gtr 2 (start playing at third time of gtr 1)
      (play each part twice except the last one)
|--------|------|-----|-----|-----|-----|-----|-----|
|--10-11-|-8-10-|-6-8-|-5-6-|-3-5-|-2-3-|---2-|-----|
|--------|------|-----|-----|-----|-----|-3---|-2---|
|--------|------|-----|-----|-----|-----|-----|-----|
|--------|------|-----|-----|-----|-----|-----|-----|
|--------|------|-----|-----|-----|-----|-----|-----|
|--------|------|-----|-----|-----|-----|-----|-----|


BRIDGE pt3 (percussion & bass - 4x)


SOLO ACOUSTIC
|---------------------------------------------------|
|--8\10~-8-6-8\10-10~---------8-10--------8---------|
|------------------------9-10------10-9-7---10-9----|
|---------------------------------------------------|
|---------------------------------------------------|
|---------------------------------------------------|
|---------------------------------------------------|

|---------------------------------------------------|
|----------------5h6p5-------5---5-6-5-6-8-6-8-\10--|
|--7-5-7\9~--5-7---------5-7---7--------------------|
|---------------------------------------------------|
|---------------------------------------------------|
|---------------------------------------------------|
|---------------------------------------------------|

|-------------------8-------------------------------|
|--8-6-5---6p5-6------11-10-8-11-10-8----10-8-------|
|-------------------------------------10------10-9--|
|---------------------------------------------------|
|---------------------------------------------------|
|---------------------------------------------------|
|---------------------------------------------------|

|----------------------------------------------------|
|--8--------10-8---------8-10-8---------8-10-8-------|
|----10-9-7------10-9-10--------10-9-10--------10-9--|
|----------------------------------------------------|
|----------------------------------------------------|
|----------------------------------------------------|
|----------------------------------------------------|

|gtr 1
|----------------------------------------|
|-----------------------8----10-8-11-10--|
|--10--9--12--10--10--9---10-------------|
|----------------------------------------|
|----------------------------------------|
|----------------------------------------|
|----------------------------------------|
|gtr 2
|----------------------------------------|
|-----------------------5-----6-5--8--6--|
|---7--6---9---7---7--6----7-------------|
|----------------------------------------|
|----------------------------------------|
|----------------------------------------|
|----------------------------------------|

|gtr 1
|--10h12-10----------10h12-10----------10h12-10--------|
|-----------11-10-11----------11-10-11----------11-10--|
|------------------------------------------------------|
|------------------------------------------------------|
|------------------------------------------------------|
|------------------------------------------------------|
|------------------------------------------------------|
|gtr 2
|---5h6--5------------5h6---5-----------5h6---5--------|
|------------8--6--8-----------8--6--8-----------8--6--|
|------------------------------------------------------|
|------------------------------------------------------|
|------------------------------------------------------|
|------------------------------------------------------|
|------------------------------------------------------|

(part played when the final chorus is already playing)
|gtr 1
|-----------|
|--8--------|
|----10--9--|
|-----------|
|-----------|
|-----------|
|-----------|
|gtr 2
|-----------|
|--6--5-----|
|--------7--|
|-----------|
|-----------|
|-----------|
|-----------|


CHORUS (equal to the second CHORUS)





Comments


Popular Ill Nino tabs & chords
Revolution Revolucion Bass Tabs
Disposal Tabs
El Nino Tabs
How Can I Live? Tabs
I Am Loco 1 Tabs
Ill Nino Tabs
Re-birth Tabs
Rumba 2 Tabs
The Art Of War Tabs
This Is War Tabs


Song lyrics



↑ Back to top | Tablatures and chords are parodies/interpretations of the original songs. You may use it for private study, scholarship, research or language learning purposes only
© 2014 AZChords.com Contact us | Privacy policy | DMCA | Add/correct tabs | Request tabs | Top 50 tabs