» » »

Ill Nino, Hot Summer's Tragedy" Tabs (ver.1)

Artists:  A B C D E F G H I J K L M N O P Q R S T U V W X Y Z # 

Hot Summer's Tragedy" Tabs (ver.1)

Ill Nino Tabs
 Rating:
4/5 (4 votes)
Hot Summer's Tragedy Tabs too difficult? Try these video lessons and learn fast
1
                Tuning: Drop C

Intro Lead Guitar
|-------------------------------------------------------------------------------------|
|-------------------------------------------------------------------------------------|
|-7-7-7-7-7-7-7-7-11-11-11-11-11-11-11-11-12-12-12-12-12-12-12-12-8-8-8-8-11-11-11-11-|
|-x-x-x-x-x-x-x-x--x--x--x--x--x--x--x--x--x--x--x--x--x--x--x--x-x-x-x-x--x--x--x--x-|
|-5-5-5-5-5-5-5-5--9--9--9--9--9--9--9--9-10-10-10-10-10-10-10-10-6-6-6-6--9--9--9--9-|
|-------------------------------------------------------------------------------------|

Last Time End With This
|-------------------------------------------------|
|-------------------------------------------------|
|-12-12-12-12-12-12-12-12-12-12-12-12-12-12-12-12-|
|--x--x--x--x--x--x--x--x--x--x--x--x--x--x--x--x-|
|-10-10-10-10-10-10-10-10-10-10-10-10-10-10-10-10-|
|-------------------------------------------------|

Main Riff
|----------------------------|
|----------------------------|
|--------------------------5-|
|--------------------------x-|
|-0-0-5h-6p-50--05h-6p-5-0-6-|
|-0-0--------0--0--------0---|

Verse
|----------------------------|
|----------------------------|
|--------------------------5-|
|--------------------------x-|
|-0-0-5h-6p-50--05h-6p-5-0-6-|
|-0-0--------0--0--------0---|
  . .        .  .        .

Pre Chorus
|---------------------------------------------|
|---------------------------------------------|
|-10-10-10-10-10-10-10-10-11-11-11-11-9-9-9-9-|
|--8--8--8--8--8--8--8--8--8--8--8--8-8-8-8-8-|
|--8--8--8--8--8--8--8--8--8--8--8--8-8-8-8-8-|
|--8--8--8--8--8--8--8--8--8--8--8--8-8-8-8-8-|

|-------------------------------------------------|
|-------------------------------------------------|
|-10-10-10-10-10-10-10-10-11-11-11-11-12-12-12-12-|
|--8--8--8--8--8--8--8--8--8--8--8--8--8--8--8--8-|
|--8--8--8--8--8--8--8--8--8--8--8--8--8--8--8--8-|
|--8--8--8--8--8--8--8--8--8--8--8--8--8--8--8--8-|

Chorus
|------------------------------------------------------------------|
|------------------------------------------------------------------|
|------------------------------------------------------------------|
|------------------------------------------------------------------|
|-7-0-7-0-7-0-7-0-6-0-6-0-6-0-6-0-5-0-5-0-5-0-5-0-3-3-3-3-0--------|
|-7-0-7-0-7-0-7-0-6-0-6-0-6-0-6-0-5-0-5-0-5-0-5-0-3-3-3-3-0---5b---|

I haven't figured out the clean guitar
on the intro/bridge or the outro yet
but i'll post them when i do
            
Submit corrections

comments powered by Disqus
↑ Back to top | Ill Nino Tabs for Hot Summer's Tragedy". Lyrics for acoustic guitar and electric guitar. 1 Tablatures and chords are parodies/interpretations of the original songs. You may use it for private study, scholarship, research or language learning purposes only