>
 >
Have You Ever Felt? 1

Have You Ever Felt? 1 Guitar Tabs

Ill Nino - Have You Ever Felt? 1 chords, tabs, tablatures, lyrics

Guitar lessons | Add/correct | Request | Top 50 tabs Artists:  A B C D E F G H I J K L M N O P Q R S T U V W X Y Z 0-9

Have You Ever Felt? 1 Guitar Tabs – Ill Nino

CD, Sheet music, Poster

Do you like Have You Ever Felt? 1? Share with your friends now
TabsTabs v2
Ill Nino: Have You Ever Felt?




Tuning: Drop C (C,G,C,F,A,D)

Riff 1
Guitar 1
D|------------------------------------------------------------------|
A|------------------------------------------------------------------|
F|------------------------------------------------------------------|
C|------------------------------------------------------------------|
G|-5-5--5-5-0--6-6-6--6-6-5--0-5-6--5-5--5-5-0--1-1-1--1-1-0--0-5-6-|
C|-0-0--0-0-0--0-0-0--0-0-0--0-0-0--0-0--0-0-0--0-0-0--0-0-0--0-0-0-|
                             * *                              * *

Riff 1
Guitar 2
D|-------------------------------------------------|
A|-------------------------------------------------|
F|----14----14----14----14----15----15----15----15-|
C|-------------------------------------------------|
G|-------------------------------------------------|
C|-12----12----12----12----12----12----12----12----|

D|-------------------------------------------------|
A|-------------------------------------------------|
F|----14----14----14----14----15----15----17----17-|
C|-------------------------------------------------|
G|-------------------------------------------------|
C|-12----12----12----12----12----12----12----12----|

Riff 2   "Sometimes I feel..."
D|-----------13-----------------------------------------|
A|------15--------15---13--------15---13---15-----------|
F|-12-----------------------12------------------14---12-|
C|------------------------------------------------------|
G|------------------------------------------------------|
C|------------------------------------------------------|

D|------13-----------------------------------------|
A|-15--------15---13--------15---13---15-----------|
F|---------------------12------------------14---12-|
C|-------------------------------------------------|
G|-------------------------------------------------|
C|-------------------------------------------------|

Play Riff 1   "I don't want to self-attain..."

Riff 1a
Guitar 2
D|-------------------------------------------------|
A|-------------------------------------------------|
F|-7-7-7-7-7-7-7-7-8-8-8-8-8-8-8-8-7-7-7-7-7-7-7-7-|
C|-x-x-x-x-x-x-x-x-x-x-x-x-x-x-x-x-x-x-x-x-x-x-x-x-|
G|-5-5-5-5-5-5-5-5-6-6-6-6-6-6-6-6-5-5-5-5-5-5-5-5-|
C|-------------------------------------------------|

D|-------------------------|
A|-------------------------|
F|-3-3-3-3-3-3-2-2-2-2-2-2-|
C|-x-x-x-x-x-x-x-x-x-x-x-x-|
G|-1-1-1-1-1-1-0-0-0-0-0-0-|
C|-------------------------|

Riff 3   (Clean)
D|--------------------|
A|--------------------|
F|--------------------|
C|-x-x-5--------x-x-5-|
G|-x-x-5--------x-x-5-|
C|-x-x-5--------x-x-5-|

Play Riff 2   "The tension builds..."
Play Riff 1   "I don't want to self-attain..."

Riff 4   (Clean)
D|--------------------------------------------------------|
A|--------------------------------------------------------|
F|-14-------14-------15-14-----14-------14----------------|
C|----15-------15----------15-----15-------15----15-17-15-|
G|-------17-------17-----------------17-------17----------|
C|--------------------------------------------------------|

D|-------------------------------|
A|-------------------------------|
F|-14-15--14-15-17--15--14-15-14-|
C|-------------------------------|
G|-------------------------------|
C|-------------------------------|

Play Riff 1   "I don't want to self-attain..."

Riff 5
D|---------------|
A|---------------|
F|---------------|
C|---------------|
G|-0-5-6-6-------|
C|-0-0-0-0-------|


Notation:

10^        = bend a quarter step.
10b11      = bend a half step.
10b12      = bend a full step.
10b12r10   = bend and release.
[10]12     = pre-bend.
[10]12r10  = pre-bend and release.
{14}       = pick the 14th fret while holding the most 
             previous bend.
<17>       = touch the string above the 17th fret while 
             previous note(s) is(are) still ringing.

10b13*     = tremolo bar bend, from the 10th fret to the 13th fret.
7d4*       = tremolo bar dive, from the 7th fret to the 4th fret. 
12~*       = tremolo bar vibrato.

x   =  mute with fret-hand
*   =  palm mute
X\\ =  pick slide
h   =  hammer-on
p   =  pull-off
~   =  vibrato
t   =  finger tap
/   =  slide up
\   =  slide down
h.  =  natural harmonics
a   =  artificial harmonics
(9) =  ghost note
tm  =  trem picking
tr  =  trill





Comments


Popular Ill Nino tabs & chords
Barely Breathing Bass Tabs
How Can I Live? Bass Tabs
Predisposed 3 Bass Tabs
Alibi Of Tyrants" Tabs
Barely Breathing Tabs
Barely Breathing 1 Tabs
Bleed Like You Tabs
I Am Loco Tabs
Nothings Clear 2 Tabs
Only The Unloved Tabs


Song lyrics



↑ Back to top | Tablatures and chords are parodies/interpretations of the original songs. You may use it for private study, scholarship, research or language learning purposes only
© 2014 AZChords.com Contact us | Privacy policy | DMCA | Add/correct tabs | Request tabs | Top 50 tabs