» » »

Ill Nino, God Save Us Tabs (ver.4)

Artists:  A B C D E F G H I J K L M N O P Q R S T U V W X Y Z # 

God Save Us Tabs (ver.4)

Ill Nino Tabs
Rating:
0/5 (0 votes)
God Save Us lessons Tabs too difficult? Try these video lessons and learn fast
                
	TUNING: Drop D and down 1 step (C G C F A D)

     For opening my best bet would be to get a REALLY FUZZY Fuzz Pedal and rock hit the back of
     your neck around the 2nd fret while rocking a wah pedal back and forth.

     Riff 1: (w/ chorus)
    D|-------------|
    A|-------------|
    F|-88888-------|
    C|-77777-0-----|
    G|-66666-0-----|
    C|-------0-----|

     Riff 2: (w/ flanger)
    D|--------------|
    A|--------------|
    F|--------------|
    C|--------------|
    G|--------------|
    C|-0-0-0--1-1-1-|

     Riff 3:
    D|---------------|
    A|---------------|
    F|---------------|
    C|-0--0--0-0-0-0-| PM=palm mute
    G|-0--0--0-0-0-0-|
    C|-0--0--0-0-0-0-|
     PM-  -  - - - -

     Riff 4:
    D|---------------------------------------------------------|
    A|---------------------------------------------------------|
    F|---------------------------------------------------------|
    C|-0-0-0-0-0-1---0-0-0-0-0-1---0-0-0-0-0-1---0-0-0-0-0-----|
    G|-0-0-0-0-0-1---0-0-0-0-0-1---0-0-0-0-0-1---0-0-0-0-0-----|
    C|-0-0-0-0-0-1---0-0-0-0-0-1---0-0-0-0-0-1---0-0-0-0-0-[5]-|

     Riff 5: (clean, guitar 2 is arppegating these chords in the back)
    D|-----------------------------------------------------------------------------------------|
    A|-----------------------------------------------------------------------------------------|
    F|-7--7-7-7-7-7-7-7-7--5--5-5-5-5-5-5-5-5--7--7-7-7-7-7-7-7-7--10--10-10-10-10-10-10-10-10-|
    C|-7--7-7-7-7-7-7-7-7--5--5-5-5-5-5-5-5-5--7--7-7-7-7-7-7-7-7--10--10-10-10-10-10-10-10-10-|
    G|-5--5-5-5-5-5-5-5-5--3--3-3-3-3-3-3-3-3--5--5-5-5-5-5-5-5-5--8---8--8--8--8--8--8--8--8--|
    C|-----------------------------------------------------------------------------------------|

     Riff 6:
    D|-------------|
    A|-------------|
    F|-------------|
    C|-0-0-0-0-0-0-|
    G|-0-0-0-0-0-0-|
    C|-0-0-0-0-0-0-|
     PM- - - - - -
            

comments powered by Disqus
↑ Back to top | Ill Nino Tabs for God Save Us. Lyrics for acoustic guitar and electric guitar. Tablatures and chords are parodies/interpretations of the original songs. You may use it for private study, scholarship, research or language learning purposes only