» » »

Ill Nino, Finger Painting Tabs (ver.1)

Artists:  A B C D E F G H I J K L M N O P Q R S T U V W X Y Z # 

Finger Painting Tabs (ver.1)

Ill Nino Tabs
Rating:
4/5 (1 vote)
Finger Painting lessons Tabs too difficult? Try these video lessons and learn fast
                Ill Nino: Finger Painting (With The Enemy)




Tuning: Drop D (D,A,D,G,B,E)

Riff 1 - Guitar 1 (Clean)
E|--------------------------|
B|--------------------------|
G|-5/7-7-7--7-8\7--7-8\7--7-|
D|-x-x-x-x--x-x-x--x-x-x--x-|
A|-3/5-5-5--5-6\5--5-6\5--5-|
D|--------------------------|

Riff 1 - Guitar 2 (Delay)
E|-------15-(15)-(15)-(15)----13-(13)-(13)-(13)-|
B|-13h15-------------------15-------------------|
G|----------------------------------------------|
D|----------------------------------------------|
A|----------------------------------------------|
D|----------------------------------------------|

Riff 1a - Guitar 1 (Clean)
E|-------------|
B|-------------|
G|-5/7-7-7-7-7-|
D|-x-x-x-x-x-x-|
A|-3/5-5-5-5-5-|
D|-------------|

Riff 1a - Guitar 2 (Delay)
E|-------15-(15)-(15)-(15)-(15)-|
B|-13h15------------------------|
G|------------------------------|
D|------------------------------|
A|------------------------------|
D|------------------------------|

Riff 2 - Guitars 1 & 2   "Aaaahhhhhh......"
E|--------------------------------------------------|
B|--------------------------------------------------|
G|--------7--------7/8-5--------5/7-3------3------8-|
D|--------x--------x-x-x--------x-x-x------x------x-|
A|-000000-5--0-0-0-5/6-3--0-0-0-3/5-1--000-1--0-0-6-|
D|-000000----0-0-0--------0-0-0--------000----0-0---|
   ******    * * *        * * *        ***    * *

Riff 3 - Guitar 1   "I, lie to less myself..."
E|---------------------------------------------------------------|
B|---------------------------------------------------------------|
G|---------------------------------------------------------------|
D|-------------------------------------------------------------3-|
A|---------6-5---------6-5-----------------6-5---------6-5-----3-|
D|-0-5-6-0-----0-6-5-0-----0-6-3-5-0-5-6-0-----0-6-5-0-----0-6-3-|
   * * * * * * * * * * * * * *     * * * * * * * * * * * * * *

Riff 3 - Guitar 2 - Play Riff 1

Riff 3a - Guitars 1 & 2
E|---------------|
B|---------------|
G|---------------|
D|---------5p3---|
A|-5h6-5h6-----5-|
D|---------------|

Play Riff 2   "Aaaaahhhhhh..."

Riff 4 - Guitar 1   "So you think that you know me..."
E|-------------------------------------------------------------|
B|-------------------------------------------------------------|
G|---------------------------------------------5-5-5-5-5-5-5-5-|
D|-0-0-0-0-0-0-0-0-5-5-5-5-5-5-8\--3-3-3-3-3-3-5-5-5-5-5-5-5-5-|
A|-0-0-0-0-0-0-0-0-5-5-5-5-5-5-8\--3-3-3-3-3-3-3-3-3-3-3-3-3-3-|
D|-0-0-0-0-0-0-0-0-5-5-5-5-5-5-8\--3-3-3-3-3-3-----------------|

Riff 4a   "But I'm still alive, inside..."
E|----------------------------------------------|
B|----------------------------------------------|
G|-3-3-3-3-3-3-3-3------------------------------|
D|-3-3-3-3-3-3-3-3-1-1-1-1-1-1-1-1-1-3-1--1-3-1-|
A|-1-1-1-1-1-1-1-1-1-1-1-1-1-1-1-1-1-3-1--1-3-1-|
D|-----------------1-1-1-1-1-1-1-1-1-3-1--1-3-1-|

Riff 4 - Guitar 2
E|----------------------------------------------------|
B|-10h11p10h11p10h11p10h11p10h11p10h11p10h11p10h11p10-|
G|----------------------------------------------------|
D|----------------------------------------------------|
A|----------------------------------------------------|
D|----------------------------------------------------|

Riff 5 - Guitars 1 & 2
E|--------------------|
B|--------------------|
G|--------------------|
D|--------------------|
A|-0000000----0000000-|
D|-0000000----0000000-|
   *******    *******

Play Riff 3
Play Riff 3a
Play Riff 2
Play Riff 4
Play Riff 4a

Riff 6 - Guitars 1 & 2
E|------------------------------------|
B|------------------------------------|
G|-------14--------15--------------12-|
D|-------x---------x---------------x--|
A|-0-0-0-12--0-0-0-13--000-000-0-0-10-|
D|-0-0-0-----0-0-0-----000-000-0-0----|
   * * *     * * *     *** *** * *

Riff 6a (Wah)
E|-------------|
B|-------------|
G|-------------|
D|-------------|
A|-------------|
D|-1-0-1-3-1-0-|

Play Riff 6

Riff 6b
E|-------------|
B|-------------|
G|-------------|
D|-1-0-1-3-1-0-|
A|-1-0-1-3-1-0-|
D|-1-0-1-3-1-0-|

Play Riff 6

Riff 6c
E|-----------------|
B|-----------------|
G|-----------------|
D|-----------------|
A|-----111-----000-|
D|-333-----111-----|
   *** *** *** ***

Play Riff 6

Riff 6d
E|-------------------------------|
B|-------------------------------|
G|-8-8-8-8-8-8-8-8---------------|
D|-x-x-x-x-x-x-x-x-0-3-3-3-1-1-1-|
A|-6-6-6-6-6-6-6-6-0-3-3-3-1-1-1-|
D|-----------------0-3-3-3-1-1-1-|
                     * * * * * *

Play Riff 4   "So you think that you know me..." (Fade out)



Notation:

10^        = bend a quarter step.
10b11      = bend a half step.
10b12      = bend a full step.
10b12r10   = bend and release.
[10]12     = pre-bend.
[10]12r10  = pre-bend and release.
{14}       = pick the 14th fret while holding the most 
             previous bend.
<17>       = touch the string above the 17th fret while 
             previous note(s) is(are) still ringing.

10b13*     = tremolo bar bend, from the 10th fret to the 13th fret.
7d4*       = tremolo bar dive, from the 7th fret to the 4th fret. 
12~*       = tremolo bar vibrato.

x   =  mute with fret-hand
*   =  palm mute
X\\ =  pick slide
h   =  hammer-on
p   =  pull-off
~   =  vibrato
t   =  finger tap
/   =  slide up
\   =  slide down
h.  =  natural harmonics
a   =  artificial harmonics
(9) =  ghost note
tm  =  trem picking
tr  =  trill
            

comments powered by Disqus
↑ Back to top | Ill Nino Tabs for Finger Painting. Lyrics for acoustic guitar and electric guitar. Tablatures and chords are parodies/interpretations of the original songs. You may use it for private study, scholarship, research or language learning purposes only