» » »

Ill Nino, Fallen Tabs (ver.1)

Artists:  A B C D E F G H I J K L M N O P Q R S T U V W X Y Z # 

Fallen Tabs (ver.1)

Ill Nino Tabs
Rating:
0/5 (0 votes)
Fallen lessons Tabs too difficult? Try these video lessons and learn fast
                
FALLEN
As recorded by Ill Niño
(From the 2003 Album REVOLUTION/REVOLUCION DIGIPAK)

        

Words and Music by Ill Niño
Arranged by Ill Niño

Gtr I (C G C F A D) - 'Acoustic w/Phaser'
Gtr II (C G C F A D) - 'Distortion 1'
Gtr III (C G C F A D) - 'Distortion 2'

   Intro Part 1
    Q=70
    N.C.
   4/4
    Gtr I
    S S S S S S S S S S S S S S S S   S S S S S S S S S S S S S S S S
||----------------------------------|-----------------------------------||
||o-------------------3-------------|-------------------3--------------o||
||----2-3---3-2---2-3---3-2---2-3---|---2-3---3-2---2-3---3-2---2-3-----||
||--0-----0-----0-----------0-------|-0-----0-----0-----------0---------||
||o---------------------------------|----------------------------------o||
||----------------------------------|-----------------------------------||


   Intro Part 2
                                1.
    BbEbD5     C5 D5 D5C5 D5 D5  BbEbD5     C5 D5 D5C5 D5 D5
    Gtrs II, III
    E E Q  +S   S  S S  S  S E   E E Q  +S   S  S S  S  S E
||-----------------------------|-----------------------------||
||o----------------------------|----------------------------o||
||--3--------------------------|-3---------------------------||
||--3-1-0--(0)-10-12-0-10-12-0-|-3-1-0--(0)-10-12-0-10-12-0--||
||o-1-1-0--(0)-10-12-0-10-12-0-|-1-1-0--(0)-10-12-0-10-12-0-o||
||----1-0--(0)-10-12-0-10-12-0-|---1-0--(0)-10-12-0-10-12-0--||


 2.
  Bb5               Eb5
  S S S S S S S S S S S S S S S S
|---------------------------------||
|---------------------------------||
|---------------------------------||
|-8-8-8-8-8-8-8-8-8-1-1-1-1-1-1-1-||
|-8-8-8-8-8-8-8-8-8-1-1-1-1-1-1-1-||
|-8-8-8-8-8-8-8-8-8-1-1-1-1-1-1-1-||


   Verse
                                     1.
    $
    N.C.
    Gtr I                                                             Gtr
    S S S S S S S S S S S S S S S S   S S S S S S S S S S S S S S S S
||----------------------------------|----------------------------------||
||o-------------------3-------------|-------------------3-------------o||
||----2-3---3-2---2-3---3-2---2-3---|---2-3---3-2---2-3---3-2---2-3----||
||--0-----0-----0-----------0-------|-0-----0-----0-----------0--------||
||o---------------------------------|---------------------------------o||
||----------------------------------|----------------------------------||


 2.
  Eb5
 s II, III
  S S S S S S S S S S S S S S S S
|------------------------------------||
|------------------------------------||
|------------------------------------||
|-1-1-1-1-1-1-1-1-1-1-1-1-1-1-1-1----||
|-1-1-1-1-1-1-1-1-1-1-1-1-1-1-1-1----||
|-1-1-1-1-1-1-1-1-1-1-1-1-1-1-1-1----||


                                     1.
    N.C.
    Gtr I                                                             Gtr
    S S S S S S S S S S S S S S S S   S S S S S S S S S S S S S S S S
||----------------------------------|----------------------------------||
||o-------------------3-------------|-------------------3-------------o||
||----2-3---3-2---2-3---3-2---2-3---|---2-3---3-2---2-3---3-2---2-3----||
||--0-----0-----0-----------0-------|-0-----0-----0-----------0--------||
||o---------------------------------|---------------------------------o||
||----------------------------------|----------------------------------||


 2.
  Eb5
 s II, III
  S S S S S S S S S S S S S S S S
|------------------------------------||
|------------------------------------||
|------------------------------------||
|-1-1-1-1-1-1-1-1-1-1-1-1-1-1-1-1----||
|-1-1-1-1-1-1-1-1-1-1-1-1-1-1-1-1----||
|-1-1-1-1-1-1-1-1-1-1-1-1-1-1-1-1----||


   Chorus
                                1.
    BbEbD5     C5 D5 D5C5 D5 D5  BbEbD5     C5 D5 D5C5 D5 D5
    E E Q  +S   S  S S  S  S E   E E Q  +S   S  S S  S  S E
||-----------------------------|-----------------------------||
||o----------------------------|----------------------------o||
||--3--------------------------|-3---------------------------||
||--3-1-0--(0)-10-12-0-10-12-0-|-3-1-0--(0)-10-12-0-10-12-0--||
||o-1-1-0--(0)-10-12-0-10-12-0-|-1-1-0--(0)-10-12-0-10-12-0-o||
||----1-0--(0)-10-12-0-10-12-0-|---1-0--(0)-10-12-0-10-12-0--||


 2.
  Eb5
  S S S S S S S S S S S S S S S S
|---------------------------------||
|---------------------------------||
|---------------------------------||
|-1-1-1-1-1-1-1-1-1-1-1-1-1-1-1-1-||
|-1-1-1-1-1-1-1-1-1-1-1-1-1-1-1-1-||
|-1-1-1-1-1-1-1-1-1-1-1-1-1-1-1-1-||


                                1.
    BbEbD5     C5 D5 D5C5 D5 D5  BbEbD5     C5 D5 D5C5 D5 D5
    E E Q  +S   S  S S  S  S E   E E Q  +S   S  S S  S  S E
||-----------------------------|-----------------------------||
||o----------------------------|----------------------------o||
||--3--------------------------|-3---------------------------||
||--3-1-0--(0)-10-12-0-10-12-0-|-3-1-0--(0)-10-12-0-10-12-0--||
||o-1-1-0--(0)-10-12-0-10-12-0-|-1-1-0--(0)-10-12-0-10-12-0-o||
||----1-0--(0)-10-12-0-10-12-0-|---1-0--(0)-10-12-0-10-12-0--||


 2.
                            D.S.
  Eb5
  S S S S S S S S S S S S S S S S
|---------------------------------||
|---------------------------------||
|---------------------------------||
|-1-1-1-1-1-1-1-1-1-1-1-1-1-1-1-1-||
|-1-1-1-1-1-1-1-1-1-1-1-1-1-1-1-1-||
|-1-1-1-1-1-1-1-1-1-1-1-1-1-1-1-1-||


   Breakdown
    D5                                D5
    S S S S S S S S S S S S S S S S   S S S S S S S S S S S S S S S S  4x
||------5-5-5-----------------------|-----5-5-5------------------------||
||o-----3-3-3-----------------------|-----3-3-3-----------------------o||
||----2-2-2-2-2---------------------|---2-2-2-2-2----------------------||
||--0-0-0-0-0-0---0-0---0-0---0-0---|-0-0-0-0-0-0---0-0---0-0---0-0----||
||o-0-0-0-0-0-0---0-0---0-0---0-0---|-0-0-0-0-0-0---0-0---0-0---0-0---o||
||--0-0-0-0-0-0---0-0---0-0---0-0---|-0-0-0-0-0-0---0-0---0-0---0-0----||


   Chorus
                                1.
    BbEbD5     C5 D5 D5C5 D5 D5  BbEbD5     C5 D5 D5C5 D5 D5
    E E Q  +S   S  S S  S  S E   E E Q  +S   S  S S  S  S E
||-----------------------------|-----------------------------||
||o----------------------------|----------------------------o||
||--3--------------------------|-3---------------------------||
||--3-1-0--(0)-10-12-0-10-12-0-|-3-1-0--(0)-10-12-0-10-12-0--||
||o-1-1-0--(0)-10-12-0-10-12-0-|-1-1-0--(0)-10-12-0-10-12-0-o||
||----1-0--(0)-10-12-0-10-12-0-|---1-0--(0)-10-12-0-10-12-0--||


 2.
  Eb5
  S S S S S S S S S S S S S S S S
|---------------------------------||
|---------------------------------||
|---------------------------------||
|-1-1-1-1-1-1-1-1-1-1-1-1-1-1-1-1-||
|-1-1-1-1-1-1-1-1-1-1-1-1-1-1-1-1-||
|-1-1-1-1-1-1-1-1-1-1-1-1-1-1-1-1-||


                                1.
    BbEbD5     C5 D5 D5C5 D5 D5  BbEbD5     C5 D5 D5C5 D5 D5
    E E Q  +S   S  S S  S  S E   E E Q  +S   S  S S  S  S E
||-----------------------------|-----------------------------||
||o----------------------------|----------------------------o||
||--3--------------------------|-3---------------------------||
||--3-1-0--(0)-10-12-0-10-12-0-|-3-1-0--(0)-10-12-0-10-12-0--||
||o-1-1-0--(0)-10-12-0-10-12-0-|-1-1-0--(0)-10-12-0-10-12-0-o||
||----1-0--(0)-10-12-0-10-12-0-|---1-0--(0)-10-12-0-10-12-0--||


 2.
  Eb5
  S S S S S S S S S S S S S S S S
|---------------------------------||
|---------------------------------||
|---------------------------------||
|-1-1-1-1-1-1-1-1-1-1-1-1-1-1-1-1-||
|-1-1-1-1-1-1-1-1-1-1-1-1-1-1-1-1-||
|-1-1-1-1-1-1-1-1-1-1-1-1-1-1-1-1-||


   Out-Chorus
                                  1.
    BbEbD5     C5 D5 D5C5 D5 D5    BbEbD5     C5 D5 D5C5 D5 D5
                             PM|                            PM|
    E E Q  +S   S  S S  S  S S S   E E Q  +S   S  S S  S  S S S
||-------------------------------|-------------------------------||
||o------------------------------|------------------------------o||
||--3----------------------------|-3-----------------------------||
||--3-1-0--(0)-10-12-0-10-12-----|-3-1-0--(0)-10-12-0-10-12------||
||o-1-1-0--(0)-10-12-0-10-12-0-0-|-1-1-0--(0)-10-12-0-10-12-0-0-o||
||----1-0--(0)-10-12-0-10-12-0-0-|---1-0--(0)-10-12-0-10-12-0-0--||


 2H.=H
  Eb5                         D5
                              PM|
  S S S S S S S S S S S S S S S S
|---------------------------------||
|---------------------------------||
|---------------------------------||
|-1-1-1-1-1-1-1-1-1-1-1-1-1-1-----||
|-1-1-1-1-1-1-1-1-1-1-1-1-1-1-0-0-||
|-1-1-1-1-1-1-1-1-1-1-1-1-1-1-0-0-||


 Outro
  Q=60
  BbEbD5
  E E H.        +W
|-------------|--------*|
|-------------|--------*|
|-3-----------|--------*|
|-3-1-0-------|-(0)----*|
|-1-1-0-------|-(0)----*|
|---1-0-------|-(0)----*|



Duration Legend
---------------
W - whole; H - half; Q - quarter; E - 8th; S - 16th; T - 32nd; X - 64th; a - acciaccatura
+ - note tied to previous; . - note dotted; .. - note double dotted
Uncapitalized letters represent notes that are staccato (1/2 duration)
Irregular groupings are notated above the duration line
Duration letters will always appear directly above the note/fret number it represents the
duration for.  Duration letters with no fret number below them represent rests.  Multi-
bar rests are notated in the form Wxn, where n is the number of bars to rest for.  Low
melody durations appear below the staff

Tablature Legend
----------------
 h   - hammer-on
 p   - pull-off
 b   - bend
 pb  - pre-bend
 r   - bend release (if no number after the r, then release immediately)
 /\  - slide into or out of (from/to "nowhere")
 s   - legato slide
 S   - shift slide
 - natural harmonic
[n]  - artificial harmonic
n(n) - tapped harmonic
 ~   - vibrato
 tr  - trill
 T   - tap
 TP  - trem. picking
 PM  - palm muting
\n/  - tremolo bar dip; n = amount to dip
 \n  - tremolo bar down
 n/  - tremolo bar up
/n\  - tremolo bar inverted dip
 =   - hold bend; also acts as connecting device for hammers/pulls
 <> - volume swell (louder/softer)
 x   - on rhythm slash represents muted slash
 o   - on rhythm slash represents single note slash

Misc Legend
-----------
 |  - bar
||  - double bar
||o - repeat start
o|| - repeat end
*|  - double bar (ending)
 :  - bar (freetime)
 $  - Segno
 &  - Coda
Tempo markers -  = BPM(8/16=s8/s16), where s8 = swing 8ths, s16 = swing 16ths
            

comments powered by Disqus
↑ Back to top | Ill Nino Tabs for Fallen. Lyrics for acoustic guitar and electric guitar. Tablatures and chords are parodies/interpretations of the original songs. You may use it for private study, scholarship, research or language learning purposes only