» » »

Ill Nino, Eva Tabs (ver.1)

Artists:  A B C D E F G H I J K L M N O P Q R S T U V W X Y Z # 

Eva Tabs (ver.1)

Ill Nino Tabs
 Rating:
4/5 (4 votes)
Eva lessons Tabs too difficult? Try these video lessons and learn fast
1
                Ill Nino: Eva




Tuning: Drop C (C,G,C,F,A,D)

Riff 1 - light distortion
D|---5---5---6-5---|
A|-----------------|
F|-7---7---7-----7-|
C|-----------------|   (let all notes ring)
G|-----------------|
C|-----------------|

Play Riff 1 x4

Riff 2 - distortion
D|-----------------------------------------------------------|
A|---------------------------------------------------9-9-----|
F|----------------7-7-7-8-8-7-7----------------7-7-7-----8-8-|
C|-0--7-7-7-8-8-8---------------0--7-7-7-8-8-8---------------|
G|-0----------------------------0----------------------------|
C|-0----------------------------0----------------------------|

D|-----------------------------------------------------------------|
A|-----------------------------------------------------------------|
F|----------------7-7-7-8-8-7-7------------------------------------|
C|-0--7-7-7-8-8-8---------------10-10-10-------8-8-8-------7-7-8-8-|
G|-0-------------------------------------0-0-0-------0-0-0---------|
C|-0-------------------------------------0-0-0-------0-0-0---------|
                                         * * *       * * *

Play Riff 2 x2
Play Riff 2 x2 (palm mute all open chords this time) "Don't die for me..."
               (ending repeats an additional time the 2nd time through)

Riff 3    "...and you don't even know my name..."
D|--------------------------------------------------------------------------|
A|--------------------------------------------------------------------------|
F|-7-7-7-7-7-7-7-7-7-7-7-7-7-7-7-7-10-10-10-10-10-10-10-10-10-10-10-10-10-10|
C|-7-7-7-7-7-7-7-7-7-7-7-7-7-7-7-7-10-10-10-10-10-10-10-10-10-10-10-10-10-10|
G|-5-5-5-5-5-5-5-5-5-5-5-5-5-5-5-5-8--8--8--8--8--8--8--8--8--8--8--8--8--8-|
C|--------------------------------------------------------------------------|

D|-------------------------------------------------------|
A|-------------------------------------------------------|
F|-12-12-14-14-14-14-14-14-14-14-14-14-14-14-14-14-14-14-|
C|-12-12-14-14-14-14-14-14-14-14-14-14-14-14-14-14-14-14-|
G|-10-10-12-12-12-12-12-12-12-12-12-12-12-12-12-12-12-12-|
C|-------------------------------------------------------|

D|---------------------------------------------|
A|---------------------------------------------|
F|-12-12-12-12-12-12-12-12-10-10-10-10-8-8-7\5-|
C|-12-12-12-12-12-12-12-12-10-10-10-10-8-8-7\5-|
G|-10-10-10-10-10-10-10-10-8--8--8--8--6-6-5\3-|
C|---------------------------------------------|

Play Riff 3 x2    "My exemption by affection..."
Play Riff 1 x4
Play Riff 2 x2 (palm mute all open chords)   "Don't lie for me..."
               (repeat ending an additional time 2nd time through)
Play Riff 3 x2    "...and you don't even know my name..."
Play Riff 1 x4

Riff 4 (all notes tremolo picked, listen to song for timing)
D|-------------------------------------------------|
A|-------------------------------------------------|
F|-7'-9'-10'-9'-10'-12'-10'-9'-10'-9'-7'--9'-7'-6'-|
C|-------------------------------------------------|
G|-------------------------------------------------|
C|-------------------------------------------------|

Play Riff 4 x4
Play Riff 3 x4    "...and you don't even know my name..."
                  (ends with a quick slide down from last chord)

That's it! Pretty simple song. Also worth noting that this is just the lead
guitar, I might add the other guitar parts at a later time, but this is
enough for one guitarist to play through the song. Enjoy!!
            
Submit corrections

comments powered by Disqus
↑ Back to top | Ill Nino Tabs for Eva. Lyrics for acoustic guitar and electric guitar. 1 Tablatures and chords are parodies/interpretations of the original songs. You may use it for private study, scholarship, research or language learning purposes only