» » »

Ill Nino, De La Vida Tabs (ver.3)

Artists:  A B C D E F G H I J K L M N O P Q R S T U V W X Y Z # 

De La Vida Tabs (ver.3)

Ill Nino Tabs
Rating:
4/5 (3 votes)
De La Vida lessons Tabs too difficult? Try these video lessons and learn fast
                Ill Niño - De La Vida
Questions/corrections: webmaster[at]illninoworld[dot]com

TUNED: drop C   (C,G,C,F,A,D)

* = Pinch Harmonic
p = Pull Off
h = Hammer On
. = Palm Mute


INTRO
---------------------------|
---------------------------|
---------------------------|
-----------------6-6-------|
-0-3-5~5~--8~6~--6-6-------|
-0-3-------------6-6-------| 4x

-----
-----
-----
-0-3-
-0-3-
-0-3-

---------------------------|
---------------------------|
---------------------------|
-------------6-6---3-5-0---|
-5~5~--8~6~--6-6---3-5-0---|
-------------6-6---3-5-0---| 3x

---------------------------|
---------------------------|
---------------------------|
-------------6-6---3-5-6---|
-5~5~--8~6~--6-6---3-5-6---|
-------------6-6---3-5-6---|


VERSE
---------------------------|
---------------------------|
-----7-8-8-8---5-5-7-------|
---------------------8-8---|
---5-----------------------|
---------------------------| 4x

---------------------------|
---------------------------|
-----7788888888555577------|
---------------------8888--|
---55----------------------|
---------------------------| 2x


PRE-CHORUS
---------------------------|
---------------------------|
---------------------------|
-------------6-6---3-5-0---|
-5~5~--8~6~--6-6---3-5-0---|
-------------6-6---3-5-0---|  4x

-------------------|
-------------------|
-------------------|
-3-5-6-6-6-6-6-6-6-|
-3-5-6-6-6-6-6-6-6-|
-3-5-6-6-6-6-6-6-6-|  2x


CHORUS
-----------------------------------|
-----------------------------------|
-----------------------------------|
-0-------3-------6-------6---------|
-0-------3-------6-------6---------|
-0-------3-------6-------6---------| 2x

A 2nd guitar plays this
--------------------------|
--------------------------|
---7-7-7-8p7-7-7-10p7-7-7-|
-7------------------------|
--------------------------|
--------------------------| 8x


Verse
Pre-chorus
Chorus 2x


BRIDGE
---------------------------------------------|
---------------------------------------------|
-------------------------------------13--8---|
-1p0-0-0-0---0-1p0-0-0---0-1p0-0-0-0-x---x---|
-1p0-0-0-0---0-1p0-0-0---0-1p0-0-0-0-11--6---|
-1p0-0-0-0---0-1p0-0-0---0-1p0-0-0-0---------| 6x

-------------------------------------|
-------------------------------------|
-------------------------------------|
-6-6-6-6-6-6-6-6-6-6-6-6-6-6-6-6-6-6-|
-6-6-6-6-6-6-6-6-6-6-6-6-6-6-6-6-6-6-|
-6-6-6-6-6-6-6-6-6-6-6-6-6-6-6-6-6-6-|


Chorus 2x


OUTRO
---------|
---------|
---------|
-0---3-5-|
-0---3-5-|
-0---3-5-| 4x

-----
-----
-0---
-0---
-0---
            
Submit corrections

comments powered by Disqus
↑ Back to top | Ill Nino Tabs for De La Vida. Lyrics for acoustic guitar and electric guitar. Tablatures and chords are parodies/interpretations of the original songs. You may use it for private study, scholarship, research or language learning purposes only