» » »

De La Vida Tabs (ver.2)

Artists:  A B C D E F G H I J K L M N O P Q R S T U V W X Y Z # 

De La Vida Tabs (ver.2)

Ill Nino
Rating:
0/5 (0 votes)

Tabs too difficult? Try these video lessons and learn fast.
                 
                                Ill Nino : DE LA VIDA : Tuning (C-G-C-F-A-D)
listen to the song and get the right timing

Intro:G1
D|-----------------------------------|
A|-----------------------------------|
F|-----------------------------------|
C|-----------------------------------|
G|------3s5-3s5-3s8-6----------------|
C|-3-5-------------------5-----------|

 
D|-----------------------------------|
A|-----------------------------------|
F|-----------------------------------|
C|-----------------------------------|
G|-3s5-3s5-3s8-6---------------------|
C|----------------5s6-5s6--3-0-------|
               
D|-33-44-11-3------------------------|
A|-------------33--------------------|
F|-----------------------------------|
C|-----------------------------------|
G|-----------------------------------|
C|-----------------------------------|

D|-----------------------------------|
A|-----------------------------------|
F|-----------------------------------|
C|-----------------------------------|
G|-3s5-3s5-3s8-6---------------------|
C|----------------5s6-5s6--3-0-------|

D|-----------------------------------|
A|-----------------------------------|
F|-----------------------------------|
C|-----------------------------------|
G|-3s5-3s5-3s8-6---------------------|
C|----------------5s6-5s6--5s6-------|

D|-----------------------------------|
A|-----------------------------------|
F|-----------------------------------|
C|-356666666--356666666--------------|
G|-356666666--356666666--------------|
C|-356666666--356666666--------------|

D|-----------------------------------|
A|-----------------------------------|
F|-----------------------------------|
C|-35000000333333666666666666--------|
G|-35000000333333666666666666--------|
C|-35000000333333666666666666--------|

D|-----------------------------------|
A|-----------------------------------|
F|-----------------------------------|
C|-000000333333666666666666----------|
G|-000000333333666666666666----------|
C|-000000333333666666666666----------|

D|-33-44-11-3------------------------|
A|-------------33--------------------|
F|-----------------------------------|
C|-----------------------------------|
G|-----------------------------------|
C|-----------------------------------|

D|-----------------------------------|
A|-----------------------------------|
F|-----------------------------------|
C|-----------------------------------|
G|-3s5-3s5-3s8-6---------------------|
C|----------------5s6-5s6--3-0-------|

D|-----------------------------------|
A|-----------------------------------|
F|-----------------------------------|
C|-----------------------------------|
G|-3s5-3s5-3s8-6---------------------|
C|----------------5s6-5s6--5s6-------|

D|-----------------------------------|
A|-----------------------------------|
F|-----------------------------------|
C|-356666666--356666666--------------|
G|-356666666--356666666--------------|
C|-356666666--356666666--------------|

D|-----------------------------------|
A|-----------------------------------|
F|-----------------------------------|
C|-35000000333333666666666666--------|
G|-35000000333333666666666666--------|
C|-35000000333333666666666666--------|

D|-----------------------------------|
A|-----------------------------------|
F|-----------------------------------|
C|-000000333333666666666666----------|
G|-000000333333666666666666----------|
C|-000000333333666666666666----------|

its not 10 its 1 then 0
D|-------------------------------------|
A|-------------------------------------|
F|-------------------------------------|
C|-------------------------------------|
G|-10-0-00---10-0-00---10-0-00-0-5s6-1-|
C|-10-0-00---10-0-00---10-0-00-0-5s6-1-|

D|-----------------------------------|
A|-----------------------------------|
F|-----------------------------------|
C|-3333333333333333------------------|
G|-3333333333333333------------------|
C|-3333333333333333------------------|
   ****************
D|-----------------------------------|
A|-----------------------------------|
F|-----------------------------------|
C|-000000333333666666666666----------|
G|-000000333333666666666666----------|
C|-000000333333666666666666----------|

D|-----------------------------------|
A|-----------------------------------|
F|-----------------------------------|
C|-360~--360~--360~--360-------------|
G|-360~--360~--360~--360-------------|
C|-360~--360~--360~--360-------------|
            
Tabs too difficult? Try these video lessons and learn fast.


comments powered by Disqus
↑ Back to top | Tablatures and chords are parodies/interpretations of the original songs. You may use it for private study, scholarship, research or language learning purposes only