» » »

De La Vida Tabs (ver.1)

Artists:  A B C D E F G H I J K L M N O P Q R S T U V W X Y Z # 

De La Vida Tabs (ver.1)

Ill Nino
Rating:
1/5 (1 vote)

Hard to play? Try these video lessons and learn fast.
                Band: Ill Nino

Intro:

D|------------------|
A|------------------|
F|-----7-7-10-8-----|
C|-0-3-7-7-10-8-6~--| x 4  Then Carry On The Intro Playing This..
G|-0-3-5-5--8-6-6~--|
C|-0-3----------6~--|

D|----|---------------------|
A|----|---------------------|
F|----|-7-7-10-8------------|
C|-0-3|-7-7-10-8------------| x 4  first time play both bars on
G|-0-3|-5-5--8-6-6-6-0------|       this riff, The 3 other times just play
C|-0-3|----------6-6-0-3p0--|      the second bar.


Verse:  (clean)

D|--------------------|        D|--------------------------|
A|--------------------|        A|--------------------------|
F|--7-8-8-8--5-5-7----|        F|-----778888888555577------|
C|----------------8-8-| x 4    C|---------------------8888-| x 2
G|-5------------------| then   G|-5-5----------------------|
C|--------------------| play.. C|--------------------------|
                                  . . ............... ....

Pre-Chorus:

D|----------------------|     D|-------------------|
A|----------------------|     A|-------------------|
F|-7-7-10--8------------|     F|-------------------|
C|-7-7-10--8-6-6-0------|then C|-3-5-6-6-6-6-6-6-6-|
G|-5-5--8--6-6-6-0------|play G|-3-5-6-6-6-6-6-6-6-|
C|-----------6-6-0--3p0-|     C|-3-5-6-6-6-6-6-6-6-|

Chorus:
Guitar I                    Guitar II

D|-----------------|       D|--------------------------|
A|-----------------|       A|--------------------------|
F|-----------------|       F|---7-7-7-8p7-7-7-10p7-7-7-|
C|-0---3----6----6-| x 2   C|-7------------------------| x 8
G|-0---3----6----6-|       G|--------------------------|
C|-0---3----6----6-|       C|--------------------------|


Verse:  (clean)

D|--------------------|        D|--------------------------|
A|--------------------|        A|--------------------------|
F|--7-8-8-8--5-5-7----|        F|-----778888888555577------|
C|----------------8-8-| x 4    C|---------------------8888-| x 2
G|-5------------------| then   G|-5-5----------------------|
C|--------------------| play.. C|--------------------------|
                                  . . ............... ....

Pre-Chorus:

D|----------------------|     D|-------------------|
A|----------------------|     A|-------------------|
F|-7-7-10--8------------|     F|-------------------|
C|-7-7-10--8-6-6-0------|then C|-3-5-6-6-6-6-6-6-6-|
G|-5-5--8--6-6-6-0------|play G|-3-5-6-6-6-6-6-6-6-|
C|-----------6-6-0--3p0-|     C|-3-5-6-6-6-6-6-6-6-|


Chorus:
Guitar I                    Guitar II

D|-----------------|       D|--------------------------|
A|-----------------|       A|--------------------------|
F|-----------------|       F|---7-7-7-8p7-7-7-10p7-7-7-|
C|-0---3----6----6-| x 2   C|-7------------------------| x 8
G|-0---3----6----6-|       G|--------------------------|
C|-0---3----6----6-|       C|--------------------------|

Bridge:

D|------------------------------------------|
A|------------------------------------------|
F|-------------------------------------13/8-|
C|-------------------------------------13/8-| x 6
G|-------------------------------------11/6-|
C|-1p0-0-0-0---0-1p0-0-0---0-1p0-0-0-0------|

D|------------------------------|
A|------------------------------|
F|------------------------------|
C|-6-6-6-6-6-6-6-6-6-6-6-6-6-6--|
G|-6-6-6-6-6-6-6-6-6-6-6-6-6-6--|
C|-6-6-6-6-6-6-6-6-6-6-6-6-6-6--|
   . . . . . . 

Chorus:
Guitar I                    Guitar II

D|-----------------|       D|--------------------------|
A|-----------------|       A|--------------------------|
F|-----------------|       F|---7-7-7-8p7-7-7-10p7-7-7-|
C|-0---3----6----6-| x 2   C|-7------------------------| x 8
G|-0---3----6----6-|       G|--------------------------|
C|-0---3----6----6-|       C|--------------------------|

Outro :

D|--------------|
A|--------------|
F|--------------|
C|-0~---3~--5~--|
G|-0~---3~--5~--|
C|-0~---3~--5~--|

D|-----|
A|-----|
F|-----|
C|--0~-|
G|--0~-|
C|--0~-|


Please Rate
            
Hard to play? Try these video lessons and learn fast. | Correct




comments powered by Disqus
↑ Back to top | Tablatures and chords are parodies/interpretations of the original songs. You may use it for private study, scholarship, research or language learning purposes only