» » »

Barely Breathing Tabs (ver.2)

Artists:  A B C D E F G H I J K L M N O P Q R S T U V W X Y Z # 

Barely Breathing Tabs (ver.2)

Ill Nino
Rating:
0/5 (0 votes)

Tabs too difficult? Try these video lessons and learn fast.
                Guitarra 1: (4 veces)

E|---------------3------------|
B|---------4-----4--------4---|
G|---------5--------5-----5---|
D|------5-----5--------5------|     
A|---3------------------------|       
E|----------------------------|


E|-----------------------------|
B|----------------8------------|
G|----------7-----7--7-----7---|
D|------5---5--5--------5--5---|     
A|---5-------------------------|       
E|-----------------------------|


E|-----------------------------|
B|----------------9------------|
G|----------8-----8--8-----7---|
D|------6---6--6--------6--6---|     
A|---6-------------------------|       
E|-----------------------------|


E|-----------------------------|
B|----------------8------------|
G|----------7-----7--7-----7---|
D|------5---5--5--------5--5---|     
A|---5-------------------------|       
E|-----------------------------|


Guitarra 2: (3 veces)


E|---------3--4--3-------------|  
B|---1--------------4--3-------|   
G|------0-----------------4--4-|    
D|-----------------------------|     
A|-----------------------------|       
E|-----------------------------|


Guitarra 1 (Fin):


E|---------------3------------|
B|---------4-----4------------|
G|---------5--------5---------|
D|------5-----5--------5-----5|     
A|---3--------------------3---|       
E|----------------------------|
            
Tabs too difficult? Try these video lessons and learn fast.


comments powered by Disqus
↑ Back to top | Tablatures and chords are parodies/interpretations of the original songs. You may use it for private study, scholarship, research or language learning purposes only