» » »

Barely Breathing Bass tabs (ver.1)

Artists:  A B C D E F G H I J K L M N O P Q R S T U V W X Y Z # 

Barely Breathing Bass tabs (ver.1)

Ill Nino
Rating:
0/5 (0 votes)

Hard to play? Try these video lessons and learn fast.
                Barely Breathing the instrumental track from Ill Nino's One Nation Underground Album it
not usually contain a bass line however many bands cannot add the effects that are in
song
such as the telelphone ring at the end. To give the song more depth this bass line can
used. I have tabbed it in Ill Nino's choice of tuning and the more universal standard
The tab is very easy to play please rate it however.

Drop C Version:

F--------------------------------------|
C--------------------------------------|
G5---------8----------8----------7-----|    X1
C--------------------------------------|

F---------------|
C---------------|
G5---------5----|   X4
C---------------|


Or

Standard Tuning:

G--------------------------------------|
D--------------------------------------|
A1---------4----------4----------3-----|    X1
E--------------------------------------|

G---------------|
D---------------|
A1---------1----|   X4
E---------------|
            
Hard to play? Try these video lessons and learn fast. | Correct




comments powered by Disqus
↑ Back to top | Tablatures and chords are parodies/interpretations of the original songs. You may use it for private study, scholarship, research or language learning purposes only