>
 >
All The Right Words

All The Right Words Guitar Tabs

Ill Nino - All The Right Words chords, tabs, tablatures, lyrics

Guitar lessons | Add/correct | Request | Top 50 tabs Artists:  A B C D E F G H I J K L M N O P Q R S T U V W X Y Z 0-9

All The Right Words Guitar Tabs – Ill Nino

CD, Sheet music, Poster

Do you like All The Right Words? Share with your friends now
Tabs
Ill Niņo - All The Right Words
Questions/corrections: webmaster[at]illninoworld[dot]com

TUNED: drop C   (C,G,C,F,A,D)

* = Pinch Harmonic
p = Pull Off
h = Hammer On
. = Palm Mute


INTRO
acoustic guitar1
|-----------------|
|-----------------|
|1111111111-7-----|
|-9-9-9-9-9-7-----|
|-9-9-9-9-9-5-----|
|-----------------|  4x

|-------------------------------------------------|
|-------------------------------------------------|
|-9-9---9-9---9-9---9-9---9---911-7-7---7-7---7-7-|
|-7-7---7-7---7-7---7-7---7---7-9-5-5---5-5---5-7-|
|-7-7---7-7---7-7---7-7---7---7-9-5-5---5-5---5-5-|
|-------------------------------------------------|


CHORUS
guitar1
|-----------------|
|-----------------|
|-----------------|
|-9-9-9-9-9-0-----|
|-9-9-9-9-9-0-----|
|-9-9-9-9-9-0-----|  4x

|-----------------------------------------------------------------|
|-----------------------------------------------------------------|
|-----------------------------------------------------------------|
|-7-7---7-7---7-7---7-7---7---7-7-5-5---5-5---5-5---5-5---5---5-5-|
|-7-7---7-7---7-7---7-7---7---7-7-5-5---5-5---5-5---5-5---5---5-5-|
|-7-7---7-7---7-7---7-7---7---7-7-5-5---5-5---5-5---5-5---5---5-5-|

guitar2
|-----------------------------------------------------------------|
|-----------------------------------------------------------------|
|111111111111----111111111111----121212121212----121212121212-----|
|-----------------------------------------------------------------|
|-----------------------------------------------------------------|
|-----------------------------------------------------------------|

|-----------------------------------------------------------------|
|-----------------------------------------------------------------|
|11-------9--11-------9--11---9---9----------12----------12-------|
|-----------------------------------------9-----------9-------9---|
|-----------------------------------------------------------------|
|-----------------------------------------------------------------|


PRE-VERSE
acoustic guitar1
|-------------------------------|
|-------------------------------|
|-----9------11-9-9--------11-9-|
|----11------1211-9---7----1211-|
|-----------------------7-------|
|-9-------9---------------------|


VERSE
guitar1
|-----------------------------------------------------------------|
|-----------------------------------------------------------------|
|11----------11----------11------------------11-------------------|
|---------9-----------9-------9--11-------9-----------9--11---9---|
|-----------------------------------------------------------------|
|-----------------------------------------------------------------| 3x

|-----------------------------------------------------------------|
|-----------------------------------------------------------------|
|11----------11----------11------12----------12----------12-------|
|---------9-----------9-------9-----------9-----------9-------9---|
|-----------------------------------------------------------------|
|-----------------------------------------------------------------|

guitar2
After a while:
|-----------------------------------------------------------------|
|-----------------------------------------------------------------|
|-----------------------------------------------------------------|
|-9-9-9-9-------9---9-9-9---9-----7-7-7-7-------7---7-7-7---7-----|
|-9-9-9-9-------9---9-9-9---9-----7-7-7-7-------7---7-7-7---7-----|
|-9-9-9-9-------9---9-9-9---9-----7-7-7-7-------7---7-7-7---7-----|

|-----------------------------------------------------------------|
|-----------------------------------------------------------------|
|-----------------------------------------------------------------|
|-5-5-5-5-------5---5-5-5---5-----5-5-5-5-------5-5-5-5---5-5-5-5-|
|-5-5-5-5-------5---5-5-5---5-----5-5-5-5-------5-5-5-5---5-5-5-5-|
|-5-5-5-5-------5---5-5-5---5-----5-5-5-5-------5-5-5-5---5-5-5-5-|


PRE-VERSE
both guitars
|----------------------------|       |---------------------------|
|----------------------------|       |---------------------------|
|-------------5---5---5-5--5-|       |---------------------------|
|-2-2-0-2-----5---5---5-5--5-|       |-7-----7---5-7---7---5-7-7-|
|-2-2-0-2-----3---3---3-3--3-|       |-7-----7---5-7---7---5-7-7-|
|-2-2-0-2--------------------|  3x   |-7-----7---5-7---7---5-7-7-|

|----------------------------|       |---------------------------|
|----------------------------|       |---------------------------|
|-------------5---5---5-5--5-|       |---------------------------|
|-2-2-0-2-----5---5---5-5--5-|       |-7------------10-----------|
|-2-2-0-2-----3---3---3-3--3-|       |-7------------10-----------|
|-2-2-0-2--------------------|  3x   |-7------------10-----------|


CHORUS
guitar1
|-----------------|
|-----------------|
|-----------------|
|-9-9-9-9-9-0-----|
|-9-9-9-9-9-0-----|
|-9-9-9-9-9-0-----|  4x

|-----------------------------------------------------------------|
|-----------------------------------------------------------------|
|-----------------------------------------------------------------|
|-7-7---7-7---7-7---7-7---7---7-7-5-5---5-5---5-5---5-5---5---5-5-|
|-7-7---7-7---7-7---7-7---7---7-7-5-5---5-5---5-5---5-5---5---5-5-|
|-7-7---7-7---7-7---7-7---7---7-7-5-5---5-5---5-5---5-5---5---5-5-|

guitar2
|-----------------------------------------------------------------|
|-----------------------------------------------------------------|
|111111111111----111111111111----121212121212----121212121212-----|
|-----------------------------------------------------------------|
|-----------------------------------------------------------------|
|-----------------------------------------------------------------|

|-----------------------------------------------------------------|
|-----------------------------------------------------------------|
|11-------9--11-------9--11---9---9----------12----------12-------|
|-----------------------------------------9-----------9-------9---|
|-----------------------------------------------------------------|
|-----------------------------------------------------------------|


BRIDGE
both guitars:
|-------------------------------|
|-------------------------------|
|-------------------------------|
|-3-2-0-2-----3-2-0-2---3-2-0-2-|
|-3-2-0-2-----3-2-0-2---3-2-0-2-|
|-3-2-0-2-----3-2-0-2---3-2-0-2-|  3x

|-------------------------------|
|-------------------------------|
|-------------------------------|
|-3-2-0-2-----3-2-0-2-----5-5---|
|-3-2-0-2-----3-2-0-2-----5-5---|
|-3-2-0-2-----3-2-0-2-----5-5---|

|-------------------------------|
|-------------------------------|
|-------------------------------|
|-3-2-0-2-----3-2-0-2---3-2-0-2-|
|-3-2-0-2-----3-2-0-2---3-2-0-2-|
|-3-2-0-2-----3-2-0-2---3-2-0-2-|  3x

|-------------------------------|
|-------------------------------|
|-------------------------------|
|-3-2-0-2-------5---------------|
|-3-2-0-2-------5---------------|
|-3-2-0-2-------5---------------|

|-------------------------------|
|-------------------------------|
|-------------------------------|
|-3-2-0-2-----3-2-0-2---3-2-0-2-|
|-3-2-0-2-----3-2-0-2---3-2-0-2-|
|-3-2-0-2-----3-2-0-2---3-2-0-2-|  3x

|-------------------------------|
|-------------------------------|
|-------------------------------|
|-3-2-0-2-------5---------------|
|-3-2-0-2-------5---------------|
|-3-2-0-2-------5---------------|


After a little break repeat the chorus





Comments


Popular Ill Nino tabs & chords
Alibi Of Tyrants" Bass Tabs
Liar Bass Tabs
Cleansing 2 Tabs
De La Vida 3 Tabs
If You Still Hate Me 3 Tabs
Me Gusta La Soledad" Tabs
Rot Tabs
Unreal 2 Tabs
What You Deserve Tabs
When It Cuts Tabs


Song lyrics



↑ Back to top | Tablatures and chords are parodies/interpretations of the original songs. You may use it for private study, scholarship, research or language learning purposes only
© 2014 AZChords.com Contact us | Privacy policy | DMCA | Add/correct tabs | Request tabs | Top 50 tabs