» » »

Ill Nino, All That I Ask For Tabs (ver.1)

Artists:  A B C D E F G H I J K L M N O P Q R S T U V W X Y Z # 

All That I Ask For Tabs (ver.1)

Ill Nino Tabs
 Rating:
4.3/5 (6 votes)
All That I Ask For lessons Tabs too difficult? Try these video lessons and learn fast
                Band: Ill Nino

.. - palm mute   / - slide up  \ Slide down  ~ Wide Vibrato

Guitar I - Ahrue { CGCFAD }  Guitar II - Jardel { CGCFAD }

Intro; (Bass Turned Down And Use Flanger Or Phaser)- Strum These Chords

Guitar I & II

D|-------------------------------------|
A|-------------------------------------|
F|-77777777-55555555-33333333-55555555-|
C|-xxxxxxxx-xxxxxxxx-xxxxxxxx-xxxxxxxx-| x 3 Singing Comes In 2nd Time And
G|-55555555-33333333-11111111-33333333-|     On 3rd Time Hold The Last Chord
C|-------------------------------------|

Guitar I

D|-----------------------------|
A|-----------------------------|
F|-----------------------------|
C|--555-777-333333-000---------| x 4
G|--555-777-333333-000---------|
C|--555-777-333333-000-3p5-----|

Guitar II

D|-10-10-10-12-12-12-8-8-8-8-8-8-8-8-5p7-|
A|---------------------------------------|
F|---------------------------------------|
C|---------------------------------------| 
G|---------------------------------------|
C|---------------------------------------|
                           
D|--13-13-13-12-12-12-10~-|     ^^^
A|------------------------|  
F|------------------------|  << Repeat All Of This 4 Times
C|------------------------|
G|------------------------|
C|------------------------|

Guitar I               Guitar II

D|---------------|     D|-10~--|
A|---------------|     A|------|
F|---------------|     F|------|
C|-0-------------|     C|------|
G|-0 ------------|     G|------|
C|-0 < Let Ring--|     C|------|

Verse:

Guitar I

D|-----------------------------|
A|-----------------------------|
F|-----------------------------|
C|--555-777-333333-000---------| x 4
G|--555-777-333333-000---------|
C|--555-777-333333-000-3p5-----|
    ... ... ...... ... ...

Guitar II

D|-17 < let ring--|
A|----------------|
F|----------------|
C|----------------| x 2
G|----------------|
C|----------------|

Fill:

Guitar I & II

D|------------------|
A|------------------|
F|--3---------------|
C|--3---------------|
G|--1 < Let Ring----|
C|------------------|

 Pre-Chorus:

Guitar I

D|-----------------------------|
A|-----------------------------|
F|-----------------------------|
C|--555-777-333333-000---------| x 4
G|--555-777-333333-000---------|
C|--555-777-333333-000-3p5-----|

Guitar II

D|-10-10-10-12-12-12-8-8-8-8-8-8-8-8-5p7-|
A|---------------------------------------|
F|---------------------------------------|
C|---------------------------------------| 
G|---------------------------------------|
C|---------------------------------------|
                           
D|--13-13-13-12-12-12-10~-|     ^^^
A|------------------------|  
F|------------------------|  << Repeat All Of This 4 Times
C|------------------------|
G|------------------------|
C|------------------------|

Chorus: 

Guitar I 

D|-------------------------------------|
A|-------------------------------------|
F|-77777777-55555555-33333333-55555555-|
C|-xxxxxxxx-xxxxxxxx-xxxxxxxx-xxxxxxxx-| x 4
G|-55555555-33333333-11111111-33333333-|     
C|-------------------------------------|

Guitar II

D|-10-10-10-12-12-12-8-8-8-8-8-8-8-8-5p7-|
A|---------------------------------------|
F|---------------------------------------|
C|---------------------------------------| 
G|---------------------------------------|
C|---------------------------------------|
                           
D|--13-13-13-12-12-12-10~-|     ^^^
A|------------------------|  
F|------------------------|  << Repeat All Of This 4 Times
C|------------------------|
G|------------------------|
C|------------------------|


Fill:

Guitar I & II

D|--------------|
A|--------------|
F|--------------|
C|-3------------|
G|-3------------|
C|-3 < Let Ring-|

Verse:

Guitar I

D|-----------------------------|
A|-----------------------------|
F|-----------------------------|
C|--555-777-333333-000---------| x 4
G|--555-777-333333-000---------|
C|--555-777-333333-000-3p5-----|
    ... ... ...... ... ...

Guitar II

D|-17 < let ring--|
A|----------------|
F|----------------|
C|----------------| x 2
G|----------------|
C|----------------|


Chorus: 

Guitar I 

D|-------------------------------------|
A|-------------------------------------|
F|-77777777-55555555-33333333-55555555-|
C|-xxxxxxxx-xxxxxxxx-xxxxxxxx-xxxxxxxx-| x 4
G|-55555555-33333333-11111111-33333333-|     
C|-------------------------------------|

Guitar II

D|-10-10-10-12-12-12-8-8-8-8-8-8-8-8-5p7-|
A|---------------------------------------|
F|---------------------------------------|
C|---------------------------------------| 
G|---------------------------------------|
C|---------------------------------------|
                           
D|--13-13-13-12-12-12-10~-|     ^^^
A|------------------------|  
F|------------------------|  << Repeat All Of This 4 Times
C|------------------------|
G|------------------------|
C|------------------------|


Fill:

Guitar I

D|-------------|
A|-------------|
F|-------------|
C|-2-00-3-00-2-|
G|-2-00-3-00-2-|
C|-2-00-3-00-2-|


Chorus: 

Guitar I 

D|-------------------------------------|
A|-------------------------------------|
F|-77777777-55555555-33333333-55555555-|
C|-xxxxxxxx-xxxxxxxx-xxxxxxxx-xxxxxxxx-| x 4
G|-55555555-33333333-11111111-33333333-|     
C|-------------------------------------|

Guitar II

D|-10-10-10-12-12-12-8-8-8-8-8-8-8-8-5p7-|
A|---------------------------------------|
F|---------------------------------------|
C|---------------------------------------| 
G|---------------------------------------|
C|---------------------------------------|
                           
D|--13-13-13-12-12-12-10~-|     ^^^
A|------------------------|  
F|------------------------|  << Repeat All Of This 4 Times
C|------------------------|
G|------------------------|
C|------------------------|


Fill:

Guitar I

D|-------------|
A|-------------|
F|-------------|
C|-2-00-3-00-2-|
G|-2-00-3-00-2-|
C|-2-00-3-00-2-|

Chorus: 

Guitar I 

D|-------------------------------------|
A|-------------------------------------|
F|-77777777-55555555-33333333-55555555-|
C|-xxxxxxxx-xxxxxxxx-xxxxxxxx-xxxxxxxx-| x 4
G|-55555555-33333333-11111111-33333333-|     
C|-------------------------------------|

Guitar II

D|-10-10-10-12-12-12-8-8-8-8-8-8-8-8-5p7-|
A|---------------------------------------|
F|---------------------------------------|
C|---------------------------------------| 
G|---------------------------------------|
C|---------------------------------------|
                           
D|--13-13-13-12-12-12-10~-|     ^^^
A|------------------------|  
F|------------------------|  << Repeat All Of This 4 Times
C|------------------------|
G|------------------------|
C|------------------------|

Any Comments,Questions Or Corrections Please Email Me
Please Rate
            
Submit corrections

comments powered by Disqus
↑ Back to top | Ill Nino Tabs for All That I Ask For. Lyrics for acoustic guitar and electric guitar. Tablatures and chords are parodies/interpretations of the original songs. You may use it for private study, scholarship, research or language learning purposes only