» » »

Iliketrains, Terra Nova Tabs (ver.1)

Artists:  A B C D E F G H I J K L M N O P Q R S T U V W X Y Z # 

Terra Nova Tabs (ver.1)

Iliketrains Tabs
Rating:
0/5 (0 votes)
Terra Nova lessons Tabs too difficult? Try these video lessons and learn fast
                “TERRANOVA”


This is played in standard tuning with lots of reverb and rhythmic delay (it’s in 6/8, 
your pedal so you get one repeat every beat). The verses are cleaner than clean, then 
in some distortion for the chorus, bridge and solo.

For the most part I haven’t notated any rhythms because it’s all heavily on the beat. 
to the song to work them out and see where the vocals fit in. Enjoy!


Intro

e|------------------------------------------------|
B|------------------------------------------------|
G|6-----6-----6-----6-----9-----9-----7-----7-----|
D|--7-7---7-7---7-7---7-7---6-6---6-6---6-6---6-6-|
A|------------------------------------------------|
E|------------------------------------------------|

e|------------------------------------------------|
B|------------------------------------------------|
G|7-----7-----6-----6-----4-----4-----9-----9-----|
D|--7-7---7-7---7-7---7-7---6-6---6-6---6-6---6-6-|
A|------------------------------------------------|
E|------------------------------------------------|


Verse riff 1

e|-------9--------------------------------------|
B|----------------------------------------------|
G|-6-6-6---6-6-6-6-6-6-6-6----------------------|
D|-7-7-7---7-7-7-7-7-7-7-7----------------------|
A|-0 (let ring) --------------------------------|
E|----------------------------------------------|

e|----------------------------------------------|
B|----------------------------------------------|
G|-6-6-6-6-6-6-6-6-6-7-7-7----------------------|
D|-7-7-7-7-7-7-7-7-7-7-7-7----------------------|
A|----------------------------------------------|
E|----------------------------------------------|

Play it 4 times, the second 2 times have “How can I have led these men to their demise?” over it, then…

Verse riff 2

e|-------7-----4-----5-----------------------------|
B|-------------------------5-----------------------|
G|-6-6-6---6-6---6-6---6-6---6-6-6-6-6-6-6-6-7-7-7-|
D|-7-7-7---7-7---7-7---7-7---7-7-7-7-7-7-7-7-7-7-7-|
A|-0 (let ring) -----------------------------------|
E|-------------------------------------------------|

Play twice, under “They just follow, exploration’s last great prize, it wasn’t mine”


Chorus

e|-0-0-0-0-0-0-0-0-0-0-0-0-0-0-0-0-0-0-0-0-0-0-0-0-|
B|-x-x-x-x-x-x-x-x-x-x-x-x-x-x-x-x-x-x-x-x-x-x-x-x-|
G|-6-6-6-6-6-6-6-6-6-6-6-6-9-9-9-9-9-9-7-7-7-7-7-7-|
D|-7-7-7-7-7-7-7-7-7-7-7-7-6-6-6-6-6-6-6-6-6-6-6-6-|
A|-0-0-0-0-0-0-0-0-0-0-0-0-x-x-x-x-x-x-x-x-x-x-x-x-|
E|-------------------------0-0-0-0-0-0-0-0-0-0-0-0-|


e|-0-0-0-0-0-0-0-0-0-0-0-0-0-0-0-0-0-0-0-0-0-0-0-0-|
B|-x-x-x-x-x-x-x-x-x-x-x-x-x-x-x-x-x-x-x-x-x-x-x-x-|
G|-7-7-7-7-7-7-6-6-6-6-6-6-4-4-4-4-4-4-9-9-9-9-9-9-|
D|-7-7-7-7-7-7-7-7-7-7-7-7-6-6-6-6-6-6-6-6-6-6-6-6-|
A|-0-0-0-0-0-0-0-0-0-0-0-0-x-x-x-x-x-x-x-x-x-x-x-x-|
E|-------------------------0-0-0-0-0-0-0-0-0-0-0-0-|


Bridge

Strum these octaves, to a ‘One, two-and-three-and’ rhythm.

e|----------------------------------------------|
B|------------13--14--16------------------------|
G|-11-13--14------------------------------------|
D|------------10--11--13------------------------|
A|-9--11--12------------------------------------|
E|----------------------------------------------|

2nd verse

The first part has no guitar, just synths, but if you want to play along anyway I think 
just the chorus chords but without the open strings.

When “Oh, the end cannot be far” comes in, play Verse Riff 2 four times.


Chorus

Bridge

Guitar solo

(The rhythm for this is ‘One, two-and-three-and’)


e|-/12--12-12-12-12-12--12-12-12-12-11--11-11-11-11-|
B|--------------------------------------------------|
G|--------------------------------------------------|
D|--------------------------------------------------|
A|--------------------------------------------------|
E|--------------------------------------------------|

e|-14--14-14-14-11------------------------------|
B|----------------------------------------------|
G|----------------------------------------------|
D|----------------------------------------------|
A|----------------------------------------------|
E|----------------------------------------------|

X3, then…

e|----------------------------------------------|
B|------------12--12-12-12-12-9--9-9-9-9--------|
G|-9--9-9-9-9-----------------------------------|
D|----------------------------------------------|
A|----------------------------------------------|
E|----------------------------------------------|

e|----------------------------------------------|
B|-10--10-10-10-10------------------------------|
G|-----------------9--9-9-9-9-9--9-9-9-9--------|
D|----------------------------------------------|
A|----------------------------------------------|
E|----------------------------------------------|

e|----------------------------------------------|
B|----------------------------------------------|
G|-9--9-9-9-9-10--10-10-10-10-------------------|
D|----------------------------------------------|
A|----------------------------------------------|
E|----------------------------------------------|


e|----------------------------------------------|
B|------------12--12-12-12-12-9--9-9-9-9--------|
G|-9--9-9-9-9-----------------------------------|
D|----------------------------------------------|
A|----------------------------------------------|
E|----------------------------------------------|

e|---------------------------------------------------|
B|-10--10-10-10-10-----------------------------------|
G|-----------------9--9-9-9-9-9--9-9-9-9-9-9-6-7-7-7-|
D|---------------------------------------------------|
A|---------------------------------------------------|
E|---------------------------------------------------|
Tremolo-pick these octaves over the chorus chords

e|----------------------------------------------|
B|----------------------------------------------|
G|-6--9--7----6--4--9---------------------------|
D|----------------------------------------------|
A|-4--7--5----4--2--7---------------------------|
E|----------------------------------------------|

Then repeat the chorus, and end on A major.
            

comments powered by Disqus
↑ Back to top | Iliketrains Tabs for Terra Nova. Lyrics for acoustic guitar and electric guitar. Tablatures and chords are parodies/interpretations of the original songs. You may use it for private study, scholarship, research or language learning purposes only