» » »

Iliketrains, Hope Is Not Enough Tabs (ver.1)

Artists:  A B C D E F G H I J K L M N O P Q R S T U V W X Y Z # 

Hope Is Not Enough Tabs (ver.1)

Iliketrains Tabs
Rating:
0/5 (0 votes)
Hope Is Not Enough lessons Tabs too difficult? Try these video lessons and learn fast
                Intro:

E||---x----x----x----x----x----||
B||---x----x----x----x----x----||
G||---3----5----2----3----0----||
D||---5----5----3----3----2----||
A||---x----x----x----x----x----||
E||---x----x----x----x----x----||

01.50 min:

E------6------------6------------6------------6------|
B----------------------------------------------------|
G--7-7---7-7----7-7---7-7----7-7---7-7----7-7---7-7--|
D----------------------------------------------------|
A----------------------------------------------------|
E----------------------------------------------------|

E------5------------5------------5------------5------|
B----------------------------------------------------|
G--5-5---5-5----5-5---5-5----5-5---5-5----5-5---5-5--|
D----------------------------------------------------|
A----------------------------------------------------|
E----------------------------------------------------|

E------3------------3------------3------------3------|
B----------------------------------------------------|
G--5-5---5-5----5-5---5-5----5-5---5-5----5-5---5-5--|
D----------------------------------------------------|
A----------------------------------------------------|
E----------------------------------------------------|
            

comments powered by Disqus
↑ Back to top | Iliketrains Tabs for Hope Is Not Enough. Lyrics for acoustic guitar and electric guitar. Tablatures and chords are parodies/interpretations of the original songs. You may use it for private study, scholarship, research or language learning purposes only