» » »

Unbreak My Heart (Regresa A Mi) Bass tabs (ver.1)

Artists:  A B C D E F G H I J K L M N O P Q R S T U V W X Y Z # 

Unbreak My Heart (Regresa A Mi) Bass tabs (ver.1)

Il Divo
Rating:
0/5 (0 votes)

Hard to play? Try these video lessons and learn fast.
                Un Break My Heart Regresa A Mi
Cover version of Toni Braxtons hit Unbreak My Heart
Under the title Regresa A Mi.  Released in 2004
(Not quite 100% especially in the bridge)

PLEASE NOTE detune E string to lower D

Think 6 bars of orchestra before the Bass comes in

Intro:
G---------------------------------------------------------------------|
D---------------------------------------------------------------------|
A---------------------------------------------------------------------|
D---2--------7--------0--------5--------2--------3----33----2----22---|

Verse:
G----------------------------------------------------------------------|
D----------------------------------------------------------------------|
A------------------------------------------------5---------------------|
D---7--------0--------5--------5--------7-----------------5--------2---|

G----------------------------------------------------------------------|
D----------------------------------------------------------------------|
A------------5-----------------7---------------------------------------|
D---7-----------------5-----------------7--------0--------5--------5---|

Chorus:
G-----------------------------------------------------------------------|
D-----------------------------------------------------------------------|
A---3-------------1-------------3-------------1--------------3----------|
D----------3-------------5-------------3--------------5-------------3---|

G------------------------------------------|
D------------------------------------------|
A---1--------------------------------------|
D----------5------6------6------5------2---|

Repeat Verse:

Chorus 2:
G-----------------------------------------------------------------------|
D-----------------------------------------------------------------------|
A---3-------------1-------------3-------------1--------------3----------|
D----------3-------------5-------------3--------------5-------------3---|

G----------------------------|
D----------------------------|
A---1------------------------|
D----------5------6------6---|

Solo:
G----------------------------------------------------------------------|
D----------------------------------------------------------------------|
A---4-------------2-------------4-------------2------------------------|
D----------4-------------2-------------4-------------2------2------7---|



Bridge:
G--------4-5-7-----7-5-4-------4-5-7---4-5-6-7-----7-4-5---------------|
D---0---7----------------5----7--------------------------5-------------|
A--------------------------------------------------------------0---2---|
D------------------------------------------------------------5---------|

Final Chorus:
G-----------------------------------------------------------------|
D-----------------------------------------------------------------|
A---3---------1------0-2-3--------1-----0-2-3---------1-----0-2---|
D--------3---------5---------3---------5---------3---------5------|

G-------------------------------------------------|
D-------------------------------------------------|
A-3---------1------0-2-3--------1-----0-2-3-------|
D------3---------5---------3---------5--------3---|

G--------------------------------------------|
D--------------------------------------------|
A---1----------------------------------------|
D-------5----6-----6-----5---------------7---|
            
Hard to play? Try these video lessons and learn fast. | Correct




comments powered by Disqus
↑ Back to top | Tablatures and chords are parodies/interpretations of the original songs. You may use it for private study, scholarship, research or language learning purposes only