>
 >
Ti Amero

Ti Amero Chords

Il Divo - Ti Amero chords, tabs, tablatures, lyrics

Guitar lessons | Add/correct | Request | Top 50 tabs Artists:  A B C D E F G H I J K L M N O P Q R S T U V W X Y Z 0-9

Ti Amero Chords – Il Divo

CD, Sheet music, Poster

Do you like Ti Amero? Share with your friends now
ChordsUkulele
Introducción: Cm-Ab-Fm-G {x2)
   Cm       Ab       Fm         G            Cm       Ab        F   G
e|-3-1p-3~--3-1p-3~--3-1p-3~-----------------3-1p-3~--3-1p-3~-----------|
B|-----------------------------1-4-3-1-0-1~---------------------1---3~~-|
G|----------------------------------------------------------------------|


Cm    Ab         Fm     G
  La notte scivola sul mondo
Cm     Ab           Fm G
  Che si addormenterà
Cm      Ab        Fm     G
  E la luna vestirà d'argento
Cm    Ab         Fm G
  Il mare e le città
Bb               Ab
  E tu mi mancherai
           Bb
Più ancora
               G
Quanto non lo sai


         Cm    Fm      Bb
Continuerò a credere che
  Eb        Ab  Fm    G
Siamo un'anima, io e te
         Cm   Fm         Bb
E ti amerò comunque, lo so
Eb     Ab     Fm       Cm-G
Anche se non sei con me
          Cm
Io ti amerò


Cm    Ab          Fm     G
  Ti porterò con me nel sole
Cm     Ab          Fm G
  Nei sogni che farò
Cm     Ab          Fm     G
  Ruberò i colori del mattino
Cm       Ab        Fm G
  E un cielo limpido
Bb               Ab
  Su cui dipingerò il tuo viso
Bb        G
  E sorriderò

         Cm    Fm      Bb
Continuerò a credere che
  Eb        Ab  Fm    G
Siamo un'anima, io e te
         Cm   Fm         Bb
E ti amerò comunque, lo so
Eb     Ab     Fm      Cm-G
Anche se non sei con me

  Cm Ab Fm G {x2)
e|-3-1p-3~--3-1p-3~--3-1p-3~-----------------3-1p-3~--3-1p-3~-3-1p-3----3--4~--|
B|-----------------------------1-4-3-1-0-1~---------------------------1--------|
G|-----------------------------------------------------------------------------|
 
 Ebm B Abm Bb {x2)
e|-6-4p-6~--6-4p-6~--6-4p-6~-----------------6-4p-6~--6-4p-6~-6-4p-6-----------|
B|-----------------------------4-7-6-4-3-4~---------------------------4--7-6~~~|
G|-----------------------------------------------------------------------------|

Bb                   Ab
  Mi manchi più che mai stasera
Bb               G  A
  Quanto non lo sai

         Dm    Gm       C
Continuerò a credere che
  F          Bb Gm    A
Siamo un'anima, io e te
         Dm   Gm         C
E ti amerò comunque, lo so
F      Bb     Gm      Dm-A
Anche se non sei con me

  Dm-Gm-C-F-Bb-Gm-A

        Dm   Gm         C
E ti amerò comunque, lo so
F      Bb     Gm      Dm-A
Anche se non sei con me

 Dm-Bb-Gm-A-Dm-Gm

A         Dm
 Io ti amerò..





Comments


Popular Il Divo tabs & chords
Isabel Chords
Musica Chords
Passerà Chords
She Chords
Si Tu Me Amas Chords
Amazing Grace Tabs
Nights In White Satin (Notte Di Luce) Tabs
O Holy Night Ukulele
Passer Ukulele
Si Tu Me Amas Ukulele


Song lyrics



↑ Back to top | Tablatures and chords are parodies/interpretations of the original songs. You may use it for private study, scholarship, research or language learning purposes only
© 2014 AZChords.com Contact us | Privacy policy | DMCA | Add/correct tabs | Request tabs | Top 50 tabs