>
 >
Si Tu Me Amas

Si Tu Me Amas Guitar Tabs

Il Divo - Si Tu Me Amas chords, tabs, tablatures, lyrics

Guitar lessons | Add/correct | Request | Top 50 tabs Artists:  A B C D E F G H I J K L M N O P Q R S T U V W X Y Z 0-9

Si Tu Me Amas Guitar Tabs – Il Divo

CD, Sheet music, Poster

Do you like Si Tu Me Amas? Share with your friends now
ChordsTabsUkulele
Introducción:
    F#m                    G#             h p      C#m                    
e------------------------------------------------------------------5-4------|
B---5-4p-5--------2-4-5-4-5h-4p~~-4-5-7-5-7-5-4----4~~-4-4-5h-4p-------7-5-4|
G----------2~~--2------------------------------------------------6----------|
D-2---------------------------------------------6----6----------------------|
A---------------------------------------------------------------------------|
E----------------------------------------------------------------------------|

h - Hammer-on
p - Pull-off
~ - Vibrato

  C#m                     F#m
 Sólo en ti por siempre seré feliz
             G#
 Historia que presentí mucho antes
   C#m
 De vivir en mí
              Riff1                      F#m           Riff1
 Porque sólo en ti encuentro lo que ayer perdí  e|------------4-4~~---|
                                                B|--------5-7---------|
                                                G|--6-6-6-------------|
                                                D|--------------------


       G#        Riff2                        Riff2
 Tu eres en mi existir mi gran  e|----------------------------------------|
      C#m    Riff3              B|-5-4-4-5h-4p4---------------------------|
 felicidad                      G|--------------6-4-4-6h-4p---------------|
                                D|-------------------------- 7-6-6-7h-6p--|
           Riff3                  
  e|-----------------------|
  B|-4-4---5-4-----4-------|
  G|-----------6-----6-----|
  D|-----6-------6---------|
 
        A              B        E
 Si tu me amas you seré esa esperanza
      C#m             F#m
 Que jamás se querrá morir
                   G#
 En este amor sin fin
      G#7             C#m   Dm  Riff4
 Tu serás siempre mi alma
  
 (aaalmaa)     Riff4
  e|------1--------0-1h--1-3h-3/5-5/6--5-----|
  B|----3--------3---------------------------|
  G|--2--------2-----------------------------|
  D|0----------------------------------------|


  Dm                     Gm
 Despertar paraisos de pasión y paz
                    A                    
 Sé que sólo los podré encontrar             Riff5
                     Dm  Riff5 - e|----------5-8h--8/10-------|
 En mis dias junto a ti          B|----5-6-7------------------|
                                 G|--7------------------------|
                                 D|---------------------------|



           Bb      C           F
 Si tu me amas yo seré esa esparanza
      Dm              Gm
 Que jamás se querrá morir
                   A
 En este amor sin fin
                       Dm
 Tu serás siempre mi alma

                      Bb         C             F                 Dm 
e|------5-5-6------------------------------6-6-8--------------------------
B|----6--------8-6p-8-6~-6-8h-6p-5-----5-8-------10-8p-10-8-8-10h-8p-6----
G|-/7-------------------------------/5------------------------------------
D|------------------------------------------------------------------------
A|------------------------------------------------------------------------
E|------------------------------------------------------------------------

                         Gm            A 
---------------5-5-5-6-------------5-6-5-6h-5p-------------------------------
-6-6-6--8-8-8----------8-6p-8----6-------------8-6--6-8h-6p--6-5-6h-5p-6-5---
------------------------------/7--------------------------------------------7-5
-------------------------------------------------------------------------------
-------------------------------------------------------------------------------
-------------------------------------------------------------------------------

              Dm                                                      D#m
-------------------------10-12-12-13-12-10--------------------------------|
---------------------/10-------------------11-10--------------------------|
-------------------------------------------------12-10-9-9-10h-9p--7-8~~--|
-8-7-5~---7-8h-7p---------------------------------------------------------|
--------------------------------------------------------------------------|
--------------------------------------------------------------------------|



           B         C#           F#
 Si tu me amas yo seré una esperanza
        D#m          G#m
 Que jamás se querrá morir
                   Bb
 En este amor sin fin
      Bb7             B   C#        F#
 Tu serás siempre mi al  - ma, amor mio
  D#m           G#m
 Jamás querra morir
                    Bb
 Abrázame hasta el fin
     Bb7      D#m
 Volaré si me amas

             G#m             Bb
 Haces realidad la magia de soñar
    Bb7            D#m
 Volaré si tu me amas.





Comments


Popular Il Divo tabs & chords
Dentro Un Altro Si Chords
Mama Chords
Musica Chords
Ti Amero Chords
Amazing Grace Ukulele
Isabel Ukulele
La Luna Ukulele
She Ukulele
The Lords Prayer Ukulele
When A Child Is Born Ukulele


Song lyrics



↑ Back to top | Tablatures and chords are parodies/interpretations of the original songs. You may use it for private study, scholarship, research or language learning purposes only
© 2014 AZChords.com Contact us | Privacy policy | DMCA | Add/correct tabs | Request tabs | Top 50 tabs