» » »

Il Divo, Nights In White Satin (Notte Di Luce) Tabs (ver.1)

Artists:  A B C D E F G H I J K L M N O P Q R S T U V W X Y Z # 

Nights In White Satin (Notte Di Luce) Tabs (ver.1)

Il Divo Tabs
 Rating:
4/5 (4 votes)
Nights In White Satin (Notte Di Luce) lessons Tabs too difficult? Try these video lessons and learn fast
1
                Introducción:

   Em              D               (x4)
e|-3-----3---------2-----2--------|
B|-----5---5-----------3---3------|
G|---4-------4-------2-------2----|
D|-2-----2---------0-----0--------|
A|--------------------------------|
E|--------------------------------|
     Notte di      luce
     Una notte  infinita
 
  C            G                F             Em
e|-0-----0------3-----3----------1-----1------0-----0--------|
B|-----0---0--------3---3------------1---1--------0---0------|
G|---1-------1----0-------0--------2-------2----0-------0----|
D|-----------------------------------------------------------|
A|-3-----3------------------------------------2-----2--------|
E|--------------3-----3----------1-----1---------------------|
    Una lettera che          Non sará mai spedita


   Em              D               (x2)
e|-3-----3---------2-----2--------|
B|-----5---5-----------3---3------|
G|---4-------4-------2-------2----|
D|-2-----2---------0-----0--------|
A|--------------------------------|
E|--------------------------------|
     Cos'è la     realtà
     lo non lo so più

   C            G                F           Em
e|-0-----0------3-----3----------1-----1------0-----0--------|
B|-----0---0--------3---3------------1---1--------0---0------|
G|---1-------1----0-------0--------2-------2----0-------0----|
D|-----------------------------------------------------------|
A|-3-----3------------------------------------2-----2--------|
E|--------------3-----3----------1-----1---------------------|
    Ad occhi aperti         Il mio sogno sei tu

        A                        C                    
e|-------------------------------------------------------|
B|------2-----2-----2-----2------1-----1-----1-----1-----|
G|----------2---2-------2---2--------0---0-------0---0---|
D|--------2-------2---2-------2----2-------2---2-------2-|
A|------0-----0-----0-----0------3-----3-----3-----3-----|
E|-------------------------------------------------------|
Io ti  amo                Si, ti amo                      
 

             Em              D            Em           Dsus4  D
e|--3--2--0--0-----0---------2-----2------0-----0------3------2------|
B|---------------0---0-----------3---3------------0------3--------3--|
G|-------------0---------0-----2-------2------0-----0------2----2----|
D|---------------------------0-----0--------2----------0------0------|
A|-----------2-----2----------------------2-----2--------------------|
E|-------------------------------------------------------------------|
 Quanto ti  amo_________________________________________





Em        D  Riff1            Riff1
Guardo la gen - te       e|-----------------|
                         B|-7-5-7-8-7---5---|
                         G|-----------7-----|
Em       D   Riff1
mano per ma - no               
                              Riff2
                         e|-----------------|
                         B|-----------------|
                         G|-2-0p-0-2h-------|
C        G     Riff2     D|-----------------|
nessuno capisce
F          Em
quello che provo
               
                              Riff3              
                         e|-5-3--2-2-3h-0p---|
Em            D Riff3    B|------------------|
Respiro il silencio      G|------------------|


Em            D Riff4         Riff4
dei tuoi pensieri        e|------------------|
                         B|-7-5-7-8-7--------|
                         G|--------------9---|
                         D|-----------7------|
C         G
un giorno sarai
F                 Em
Tutto quello che speri
     
      A
Io ti amo
      C
Si, ti amo
 Dsus4 D Dsus2    Em   Dsus4 D
Qua    -  nto  ti amo__________


Em   D   C   B 
Em   D   C   B


Em         D
Notte di luce
Em            D
Una notte infinita
C           G
Una lettera che
F               Em
Non sará mai spedita

      A
Io ti amo
      C
Si, ti amo

  Dsus4  D   Dsus2  Em9 Em    D   
Qua  -  nto   ti    am - o
  Dsus4  D   Dsus2  Em9 Em    D
S -  i,       ti    am - o

  Dsus4  D   Dsus2  Em9 Em    D      
Qua  -  nto   ti    am - o
  Dsus4  D   Dsus2  Em9 Em    D  Dsus2  
S - i,        ti    am - o

  
D#       Fm
  Si, ti amo
 Bb         Fm
  Quanto ti amo
 D#   Bb  Fm
  Si,  ti amo
 D#     Bb     Fm     D#sus2 D#
  Quan - to ti amo
               Fm
  Quanto ti amo_______________.
            
Submit corrections

comments powered by Disqus
↑ Back to top | Il Divo Tabs for Nights In White Satin (Notte Di Luce). Lyrics for acoustic guitar and electric guitar. 1 Tablatures and chords are parodies/interpretations of the original songs. You may use it for private study, scholarship, research or language learning purposes only