>
 >
Nella Fantasia

Nella Fantasia Guitar Tabs

Il Divo - Nella Fantasia chords, tabs, tablatures, lyrics

Guitar lessons | Add/correct | Request | Top 50 tabs Artists:  A B C D E F G H I J K L M N O P Q R S T U V W X Y Z 0-9

Nella Fantasia Guitar Tabs – Il Divo

CD, Sheet music, Poster

Do you like Nella Fantasia? Share with your friends now
Tabs
Entrada: 
                                                        TP
e|------------------------------------------5-6~-5------------------------|
B|-6-5-------5-6~-5-----5-6-5-------------6---------8~--8---6-----3--4~---|
G|-----5b6-5---------5~--------5---7~---7----------------------5----------|
D|------------------------------------------------------------------------|
A|------------------------------------------------------------------------|
E|------------------------------------------------------------------------|
   F   C     Fsus4      F       Am Bb          F


Bb         Cm     Bb     Dm     D#   F7
Nella fantasia io vedo un mondo giusto, 
Bb        Gm            Cm         Bb-F
Li tutti vivono in pace e in onestą. 
   Bb      Dm        Gm      Dm  Bb  D#
Io sogno d'anime che sono sempre libere,
         Bb   Gm Dm   Bb F   D#  Dm  D#
Come le nuvole_____    che   volano, 
         F   D  Gm   D#     F     Bb
Pien' d'umanitą___ in fondo all'anima. 

Bb          Cm     Bb     Dm     D#  F7
Nella fantasia io vedo un mondo chiaro, 
Bb        Gm           Cm     Bb-F
Li anche la notte č meno oscura. 
   Bb       Dm       Gm      F   Bb  D#
Io sogno d'anime che sono sempre libere, 
        Bb    Gm   Bb  D#   F   Dm D#
Come le nuvole___  che vo - la - no__
         F
Pien' d'umanitį

Interludio:

   Bb      D#         Dm   F Dm D#      F     Gm       D#       Bb     Dm    
e|-6~-5----5-6~-5-----5-6~-5----5~------------5-6~-5~---5-6~-5----5-6~-5----5~---|
B|-----6~--------6~---------6~----8~-------6~--------6~--------6~---------6----8~|
G|--------------------------------------7----------------------------------------|
D|-------------------------------------------------------------------------------|
A|-------------------------------------------------------------------------------|
E|-------------------------------------------------------------------------------|

   F                Fsus4                F
e|----------------------------------------------------1-|
B|-6-8h-6p-4-6-4-3-3-4h-3p-1---------------------3-4----|
G|----------------------------3-5h-3p-2-3~--3-5---------|
D|------------------------------------------------------|
A|------------------------------------------------------|
E|------------------------------------------------------|


Bb         Cm    Bb             D#
Nella fantasia esiste un vento caldo, 
           (asiii -             aaa)
F   Bb              Gm        Cm   F
Che soffia sulle cittą, come amico__ 
Bb                   Gm      F     D#
Io sogno d'anime che sono sempre libere, 
               (so -    gno   -  ooh)
         Bb  Gm      D#  Dm D#
Come le nuvole   che volano, 
        F    D  Gm  D#         F    Bb
Pien' d'umanitą___  in fondo all'anima

Salida:  
               D#        Bb                F  Bb 
e|-6~--5----5--6~-5------5-6~~~~~~~~~~~~~~~~~~~~~---|
B|--------6~---------6~-----------------------------|
G|--------------------------------------------------|
D|--------------------------------------------------|
A|--------------------------------------------------|
E|--------------------------------------------------|



TP: Tremolo Picking
~ : Vibrato
b : bend-up





Comments


Popular Il Divo tabs & chords
Unbreak My Heart (Regresa A Mi) Bass Tabs
Amor Venme A Buscar Chords
La Vida Sin Amor Chords
La Vida Sin Amor 1 Chords
Ti Amero Chords
Come Primavera Intro Tabs
A Mi Manera Ukulele
Solo Otra Vez Ukulele
The Impossible Dream Ukulele
Ti Amero Ukulele


Song lyrics



↑ Back to top | Tablatures and chords are parodies/interpretations of the original songs. You may use it for private study, scholarship, research or language learning purposes only
© 2014 AZChords.com Contact us | Privacy policy | DMCA | Add/correct tabs | Request tabs | Top 50 tabs