» » »

I Killed The Prom Queen, There Will Be No Violins When You Die Tabs (ver.2)

Artists:  A B C D E F G H I J K L M N O P Q R S T U V W X Y Z # 

There Will Be No Violins When You Die Tabs (ver.2)

I Killed The Prom Queen Tabs
 Rating:
4/5 (4 votes)
There Will Be No Violins When You Die lessons Tabs too difficult? Try these video lessons and learn fast
1
                -----------------------------------------------------------------------------
      There Will Be No Violins When You Die - I Killed The Prom Queen
-----------------------------------------------------------------------------

One Of The Best Instrumentals I've Ever Heard. This Is My 1st Tab, Hope You Enjoy 
It! Once I Figure Out The Fingering On a Six String, I'll Tab It For You Guys. If 
You Find Any Mistakes, Don't Hesitate To Tell Me. Thank You.

Tuning:Standard (7-string)


e|--------------------------------------------------------------------------|
B|-----------10-------------------------------------------------------------|
G|--------------------------------------------------------------------------|
D|--0--11-12----12-11-------------------------------------------------------|
A|--------------------------------------------------------------------------|
E|--------------------------------------------------------------------------|
b|--------------------------------------------------------------------------|
                                                                           x4

e|--------------------------------------------------------------------------|
B|--------------------------------------------------------------------------|
G|--------------------------------------------------------------------------|
D|--------------7------5----------------------------7---5-------------------|
A|2-------------7------5----------------------------7---5--4----------------|
E|2-----------xx5----xx3----------------------------5---3--4----------------|
b|0--------------------------------------------------------2----------------|


e|--------------------------------------------------------------------------|
B|--------------------------------------------------------------------------|
G|--------------6------4----------------------------------------------------|
D|--------------x------x----------------------------7---5-------------------|
A|2-------------4------2----------------------------7---5--4----------------|
E|2-----------xx-----xx-----------------------------5---3--4----------------|
b|0--------------------------------------------------------2----------------|


e|--------------------------------------------------------------------------|
B|--------------------------------------------------------------------------|
G|--------------------------------------------------------------------------|
D|--------------7------5----------------------------7---5-------------------|
A|2-------------7------5----------------------------7---5--4----------------|
E|2-----------xx5----xx3----------------------------5---3--4----------------|
b|0--------------------------------------------------------2----------------|


e|--------------------------------------------------------------------------|
B|--------------------------------------------------------------------------|
G|--------------6-----6-----------------------------------------------------|
D|--------------x-----x-------------------7---5-----------------------------|
A|2-------------4-----2-------------------7---5---7------9---10---5---------|
E|2-----------xx----xx--------------------5---3---7------9---10---5---------|
b|0-----------------------------------------------5------7---8----3---------|


e|--------------------------------------------------------------------------|
B|--------------------------------------------------------------------------|
G|--------------------------------------------------------------------------|
D|--------------------------------------------------------------------------|
A|2------------------------------------------------7------9---10---5--------|
E|2------------------------------------------------7------9---10---5--------|
b|0------------------------------------------------5------7---8----3--------|

e|--------------------------------------------------------------------------|
B|--------------------------------------------------------------------------|
G|--------------------------------------------------------------------------|
D|--------------7------5----------------------------7---5-------------------|
A|2-------------7------5----------------------------7---5--4----------------|
E|2-----------xx5----xx3----------------------------5---3--4----------------|
b|0--------------------------------------------------------2----------------|

e|--------------------------------------------------------------------------|
B|--------------------------------------------------------------------------|
G|--------------6-----6-----------------------------------------------------|
D|--------------x-----x-------------------7---5-----------------------------|
A|2-------------4-----2-------------------7---5---7------9---10---5---------|
E|2-----------xx----xx--------------------5---3---7------9---10---5---------|
b|0-----------------------------------------------5------7---8----3---------|

e|--------------------------------------------------------------------------|
B|--------------------------------------------------------------------------|
G|--------------------------------------------------------------------------|
D|--------------------------------------------------------------------------|
A|2------------------------------------------------7------9---10---5--------|
E|2------------------------------------------------7------9---10---5--------|
b|0------------------------------------------------5------7---8----3--------|

e|--------------------------------------------------------------------------|
B|--------------------------------------------------------------------------|
G|--------------------------------------------------------------------------|
D|--------------7------5----------------------------7---5-------------------|
A|2-------------7------5----------------------------7---5--4----------------|
E|2-----------xx5----xx3----------------------------5---3--4----------------|
b|0--------------------------------------------------------2----------------|

e|--------------------------------------------------------------------------|
B|--------------------------------------------------------------------------|
G|--------------6-----6-----------------------------------------------------|
D|--------------x-----x-------------------7---5-----------------------------|
A|2-------------4-----2-------------------7---5---7------9---10---5---------|
E|2-----------xx----xx--------------------5---3---7------9---10---5---------|
b|0-----------------------------------------------5------7---8----3---------|

e|--------------------------------------------------------------------------|
B|--------------------------------------------------------------------------|
G|--------------------------------------------------------------------------|
D|--------------------------------------------------------------------------|
A|2------------------------------------------------7------9---10---5--------|
E|2------------------------------------------------7------9---10---5--------|
b|0------------------------------------------------5------7---8----3--------|

e|--------------------------------------------------------------------------|
B|--------------------------------------------------------------------------|
G|--------------------------------------------------------------------------|
D|--------------7------5----------------------------7---5-------------------|
A|2-------------7------5----------------------------7---5--4----------------|
E|2-----------xx5----xx3----------------------------5---3--4----------------|
b|0--------------------------------------------------------2----------------|

e|--------------------------------------------------------------------------|
B|--------------------------------------------------------------------------|
G|--------------6-----6-----------------------------------------------------|
D|--------------x-----x-------------------7---5-----------------------------|
A|2-------------4-----2-------------------7---5---7------9---10---5---------|
E|2-----------xx----xx--------------------5---3---7------9---10---5---------|
b|0-----------------------------------------------5------7---8----3---------|

e|--------------------------------------------------------------------------|
B|--------------------------------------------------------------------------|
G|--------------------------------------------------------------------------|
D|--------------------------------------------------------------------------|
A|2------------------------------------------------7------9---10---5--------|
E|2------------------------------------------------7------9---10---5--------|
b|0------------------------------------------------5------7---8----3--------|

e|--------------------------------------------------------------------------|
B|--------------------------------------------------------------------------|
G|--------------------------------------------------------------------------|
D|--------------7------5----------------------------7---5-------------------|
A|2-------------7------5----------------------------7---5--4----------------|
E|2-----------xx5----xx3----------------------------5---3--4----------------|
b|0--------------------------------------------------------2----------------|
                                                                  Fades Out



************************************

| /   slide up
| \   slide down
| h   hammer-on
| p   pull-off
| ~   vibrato
| +   harmonic
| x   Mute note
| b   Bend
| pb  Pre-bend
| br  Bend release
| pbr Pre-bend release
| brb Bend release bend

************************************
            
Submit corrections

comments powered by Disqus
↑ Back to top | I Killed The Prom Queen Tabs for There Will Be No Violins When You Die. Lyrics for acoustic guitar and electric guitar. 1 Tablatures and chords are parodies/interpretations of the original songs. You may use it for private study, scholarship, research or language learning purposes only