» » »

There Will Be No Violins When You Die Tabs (ver.1)

Artists:  A B C D E F G H I J K L M N O P Q R S T U V W X Y Z # 

There Will Be No Violins When You Die Tabs (ver.1)

I Killed The Prom Queen
Rating:
4/5 (7 votes)

Hard to play? Try these video lessons and learn fast.
                -----------------------------------------------------------------------------
-----------------------------------------------------------------------------

ok this is my first tab so it prolly sucks but i think its 95-99% right
Tuning: Drop B

repeat throughout the entire song
|----------8----------------------------------------------------------------|
|–-----6-5---6-5------------------------------------------------------------|
|----7(5)-------------------------------------------------------------------|
|---------------------------------------------------------------------------|
|---------------------------------------------------------------------------|
|---------------------------------------------------------------------------|
(5) this is the one barely noticeable change in the song for the lead when the rhythm changes
|---------------------------------------------------------------------------|
|---------------------------------------------------------------------------|
|---------------------------------------------------------------------------|
|-0~-------0-0---10--–8-8-7-3~----------------------------------------------|
|-0~-------0-0---10--–8-8-7-3~----------------------------------------------|
|-0~-------0-0---10–--8-8-7-3~----------------------------------------------|
           . .
|---------------------------------------------------------------------------|
|---------------------------------------------------------------------------|
|---------------------------------------------------------------------------|
|-0~-------0-0---10--–8---8-7-3~--------------------------------------------|
|-0~-------0-0---10--–8---8-7-3~--------------------------------------------|
|-0~-------0-0---10–--8---8-7-3~--------------------------------------------|
           . .
|---------------------------------------------------------------------------|
|---------------------------------------------------------------------------|
|---------------------------------------------------------------------------|
|-0~-------0-0---10--–8---8-7-3~--------------------------------------------|
|-0~-------0-0---10--–8---8-7-3~--------------------------------------------|
|-0~-------0-0---10–--8---8-7-3~--------------------------------------------|
           . .
|---------------------------------------------------------------------------|
|---------------------------------------------------------------------------|
|---------------------------------------------------------------------------|
|-0~-------0-0---10--–8---8-7-3~-5\7--8\3-----------------------------------|
|-0~-------0-0---10--–8---8-7-3~–5\7--8\3-----------------------------------|
|-0~-------0-0---10–--8---8-7-3~-5\7–-8\3-----------------------------------|
           . .

|---------------------------------------------------------------------------|
|---------------------------------------------------------------------------|
|---------------------------------------------------------------------------|
|-0~-------5\7--8\3---------------------------------------------------------|
|-0~-------5\7--8\3---------------------------------------------------------|
|-0~-------5\7–-8\3---------------------------------------------------------|

|---------------------------------------------------------------------------|
|---------------------------------------------------------------------------|
|---------------------------------------------------------------------------|
|-0~-------0-0---10--–8---8-7-3~--------------------------------------------|
|-0~-------0-0---10--–8---8-7-3~--------------------------------------------|
|-0~-------0-0---10–--8---8-7-3~--------------------------------------------|
           . .
|---------------------------------------------------------------------------|
|---------------------------------------------------------------------------|
|---------------------------------------------------------------------------|
|-0~-------0-0---10--–8---8-7-3~--------------------------------------------|
|-0~-------0-0---10--–8---8-7-3~--------------------------------------------|
|-0~-------0-0---10–--8---8-7-3~--------------------------------------------|
           . .
|---------------------------------------------------------------------------|
|---------------------------------------------------------------------------|
|---------------------------------------------------------------------------|
|-0~-------0-0---10--–8---8-7-3~-5\7--8\3-----------------------------------|
|-0~-------0-0---10--–8---8-7-3~–5\7--8\3-----------------------------------|
|-0~-------0-0---10–--8---8-7-3~-5\7-–8\3-----------------------------------|
           . .
|-----------------------------------------------------------------------------|
|-----------------------------------------------------------------------------|
|-----------------------------------------------------------------------------|
|-0~------5\7--8\3------------------------------------------------------------|
|-0~------5\7--8\3------------------------------------------------------------|
|-0~------5\7–-8\3------------------------------------------------------------|


just keep repeating till it fades out

comment/rate it
            
Hard to play? Try these video lessons and learn fast. | Correct




comments powered by Disqus
↑ Back to top | Tablatures and chords are parodies/interpretations of the original songs. You may use it for private study, scholarship, research or language learning purposes only