» » »

I Killed The Prom Queen, Sharks In Your Mouth Tabs (ver.4)

Artists:  A B C D E F G H I J K L M N O P Q R S T U V W X Y Z # 

Sharks In Your Mouth Tabs (ver.4)

I Killed The Prom Queen Tabs
 Rating:
3.6/5 (5 votes)
Sharks In Your Mouth lessons Tabs too difficult? Try these video lessons and learn fast
                sharks in your mouth-----IKTPQ     i killed the prom queen
tuning: drop b

this is the best i could do

intro rythm    palm muted    guitar 1
1---------------------------------------------------------------------------|
2---------------------------------------------------------------------------|
3---------------------------------------------------------------------------|
4---------------------------------------------------------------------------|
5-000--000--000-000-000--000--000-000-333--333--333-333-333--333--333-333---|
6-000--000--000-000-000--000--000-000-333--333--333-333---------------------|

Intro lead harmony     guitar 2    slide to each of the notes
1---------------------------------------------------------------------------|
2---------------------------------------------------------------------------|
3---------------------------------------------------------------------------|
4-3~--7-5-7-7~--7-5-2~--3-2-3~--7-5-7--8-7~--7-5-2~--2-5-2------------------|
5-5~--8-7-8-8~--8-7-3~--5-3-5~--8-7-8-10-8~--8-7-3~--3-5-3------------------|
6---------------------------------------------------------------------------|

Intro to verse guitar 1         hammer on from the 2 to the 3 and play each twice
i ran out of room to tab them (play each 2h3 thing twice)      play the last 2h3 thing 6 times
u do the add on of the    5p3
1---------------------------------------------------------------------------|
2---------------------------------------------------------------------------|
3---------------------------------------------------------------------------|
4----23---23-----------23---23-----------23---23-----------23---23-5323-----|
5-000--000--000-000-000--000--000-000-333--333--333-333-333--333------------|
6-000--000--000-000-000--000--000-000-333--333--333-333---------------------|

intro to verse giutar two    palm muted
1---------------------------------------------------------------------------|
2---------------------------------------------------------------------------|
3---------------------------------------------------------------------------|
4---------------------------------------------------------------------------|
5-000--000--000-000-000--000--000-000-333--333--333-333-333--333--333-333---|
6-000--000--000-000-000--000--000-000-333--333--333-333---------------------|

that is the verse but then the second guitar does what the first is doing then does the
which is:

guitar 2    hammer on the 0 to the 2
hammer on from the 0 to the 2 and play each twice (play each 0h2 thing twice)      play
last 0h2 thing 6 times before u do the add on of the    3p2
1---------------------------------------------------------------------------|
2---------------------------------------------------------------------------|
3----02---02-----------02---02-----------02---02-----------02---02-3202-----|
4---------------------------------------------------------------------------|
5-000--000--000-000-000--000--000-000-333--333--333-333-333--333------------|
6-000--000--000-000-000--000--000-000-333--333--333-333---------------------|

when the harmony comes in the palm muting pattern changes a little for both guitars:
1---------------------------------------------------------------------------|
2---------------------------------------------------------------------------|
3---------------------------------------------------------------------------|
4---------------------------------------------------------------------------|
5-00--00--00-000-00--00--00-000-33--33--33-333-33--33-----------------------|
6-00--00--00-000-00--00--00-000-33--33--33-333------------------------------|

after the verses is the fast part: pick each nota as fast as u want it doesnt matter     
(both guitars)
1-------------------------------------------------------------|
2-------------------------------------------------------------|
3-------------------------------------------------------------|   Play this
4----------------888777555---------------101010888777---------|        twice
5-555555777888------------------777888------------------------|
6-------------555---------888888------777---------------------|

then the slower fast part  guitars 1&2 till the harmony
1-----------------------------------------------------------------|
2-----------------------------------------------------------------|
3-----------------------------------------------------------------|
4---------5---------------8-7-5-----------5-----------------------|  play this
5-5-7-8-7---8-7-5-5-7-8-5-------8-5-7-8-7---8-7-5-5-7-8-7-4-5-7-4-|   twice
6-----------------------------------------------------------------|
  . . . .         . . . .         . . . .         . . . . . . . .
now the harmony guitar 2 switches to the palm muted part
1-----------------------------------------------------------------|
2-----------------------------------------------------------------|
3---------3---------------7-5-3-----------3-----------------------|  play this
4-3-5-7-5---7-5-3-3-5-7-3-------7-3-5-7-5---7-5-3-3-5-7-5-2-3-5-2-|   twice
5-----------------------------------------------------------------|
6-----------------------------------------------------------------|
  . . . .         . . . .         . . . .         . . . . . . . .
the dots are for the second part of that
those are the notes u palm mute

then replay the versetill it stops and then do the awesome palm mut part

1---------------------------------------------------------------------------|
2---------------------------------------------------------------------------|
3---------------------------------------------------------------------------|
4---------------------------------------------------------------------------|
5-000-000-000-0-000-0-000-000-00-000-000-000-0-000-0-000-000-00-and---------|
6-000-000-000-0-000-0-000-000-00-000-000-000-0-000-0-000-000-00---so--------|
                                                                   forth

it does that for a while then changes to this: (slower part)
1---------------------------------------------------------------------------|
2---------------------------------------------------------------------------|
3---------------------------------------------------------------------------|
4----------------------------------------------------then-------------------|
5-00-000-0-0-0-0-0-0-0-000---00-000-0-0-0-0-0-0-0-000---that----------------|
6-00-000-0-0-0-0-0-0-0-000---00-000-0-0-0-0-0-0-0-000-------for a wile------|

Solo:
1---------------------------------------------------------------------------|
2---------------------------------------------------------------------------|
3-----14-12-10------10------------------------------12-------------14-------|
4-12~-----------14------10-10h12~-12h14p11~---121415--1514---141517--1715---|
5---------------------------------------------------------------------------|
6---------------------------------------------------------------------------|

1------------------------------------------------15b17-----------13-12------|
2------------------------------------------------------15~-13-15------------|
3-------15-------------17-----19~--19h21p18---------------------------------|
4-151719--1917---171920--2019-----------------------------------------------|
5---------------------------------------------------------------------------|
6---------------------------------------------------------------------------|

1-10h12p10---------13p6h10h13p6h10h13p6h10h13p6h10h17p6h10h17p6h10h17p6h10---|h
2---------13-15~-------------------------------------------------------------|
3----------------------------------------------------------------------------|
4----------------------------------------------------------------------------|
5----------------------------------------------------------------------------|
6----------------------------------------------------------------------------|

1-17p6h10h17p13p10h17p13p10h17p13p10h17p13p10h15p12p8h15p12p8h15p12p8-------|
2---------------------------------------------------------------------------|
3---------------------------------------------------------------------------|
4---------------------------------------------------------------------------|
5---------------------------------------------------------------------------|
6---------------------------------------------------------------------------|

1-15p12p8--10h13p10-10h13p10-------------------12h15p12-12h15p12------------|
2----------------------------10h13p10-10h13p10-------------------13~-15-13--|
3---------------------------------------------------------------------------|
4---------------------------------------------------------------------------|
5---------------------------------------------------------------------------|
6---------------------------------------------------------------------------|

1---------------------------------------------------------------------------|
2-15-17-15-17-18-17-18-20-18-20b22-20-18-20-18-17-18-17-13---13~14~15~------|
3---------------------------------------------------------------------------|
4---------------------------------------------------------------------------|
5---------------------------------------------------------------------------|
6---------------------------------------------------------------------------|
harmony for the bend
1---------------------------------------------------------------------------|
2-10~8~---------------------------------------------------------------------|
3---------------------------------------------------------------------------|
4---------------------------------------------------------------------------|
5---------------------------------------------------------------------------|
6---------------------------------------------------------------------------|


i'll submit the rest of the song later its just takes too long
            
Submit corrections

comments powered by Disqus
↑ Back to top | I Killed The Prom Queen Tabs for Sharks In Your Mouth. Lyrics for acoustic guitar and electric guitar. Tablatures and chords are parodies/interpretations of the original songs. You may use it for private study, scholarship, research or language learning purposes only