>
 >
Say Goodbye

Say Goodbye Bass Tabs

I Killed The Prom Queen - Say Goodbye chords, tabs, tablatures, lyrics

Guitar lessons | Add/correct | Request | Top 50 tabs Artists:  A B C D E F G H I J K L M N O P Q R S T U V W X Y Z 0-9

Say Goodbye Bass Tabs – I Killed The Prom Queen

CD, Sheet music, Poster

Do you like Say Goodbye? Share with your friends now
Bass TabsTabsTabs v2
Say Goodbye                                   
I Killed The Prom Queen
Sean

Tuning: B F# B E


            E  E  E  E  E  E  S S  S  S    S E  H.           S  
E ||-----|------------------------------|----------------------|
B ||-----|------------------------------|----------------------|
F#||-----|------------------------------|----------------------|
B ||-----|--0-------------------8-10-12-|--0----0------------L-|


  H         H           E  S S S S S S S S S S S S S S  
---------------------|---------------------------------|
---------------------|---------------------------------|
---------------------|---------------------------------|
--8--------10--------|--0--0-0-0-0-0-0-0-0-0-0-0-0-0-0-|


  E  S S S S S S S S S S S S S S    E  S S S S S S  E   S  S  S  S  S  S  
---------------------------------|---------------------------------------|
---------------------------------|---------------------------------------|
---------------------------------|---------------------------------------|
--0--0-0-0-0-0-0-0-0-0-0-0-0-0-0-|--8--8-8-8-8-8-8-10--10-10-10-10-10-10-|


  E  S S S S S S S S S S S S S S    E  S S S S S S S S S S S S S S  
---------------------------------|---------------------------------|
---------------------------------|---------------------------------|
---------------------------------|---------------------------------|
--0--0-0-0-0-0-0-0-0-0-0-0-0-0-0-|--0--0-0-0-0-0-0-0-0-0-0-0-0-0-0-|


  E  S S S S S S  E   S  S  S  S  S  S    E  S S S S S S S S S S S S S S  
---------------------------------------|---------------------------------|
---------------------------------------|---------------------------------|
---------------------------------------|---------------------------------|
--8--8-8-8-8-8-8-10--10-10-10-10-10-10-|--0--0-0-0-0-0-0-0-0-0-0-0-0-0-0-|


  E  S S S S S S S S S S S S S S    E  S S S S S S  E   S  S  S  S  S  S  
---------------------------------|---------------------------------------|
---------------------------------|---------------------------------------|
---------------------------------|---------------------------------------|
--0--0-0-0-0-0-0-0-0-0-0-0-0-0-0-|--8--8-8-8-8-8-8-10--10-10-10-10-10-10-|


  E  S S S S S S S S S S S S S S    E  S S S S S S S S S S S S S S  
---------------------------------|---------------------------------|
---------------------------------|---------------------------------|
---------------------------------|---------------------------------|
--0--0-0-0-0-0-0-0-0-0-0-0-0-0-0-|--0--0-0-0-0-0-0-0-0-0-0-0-0-0-0-|


  E  S S S S S S  E   S  S  S  S  S  S    E  S S S S S S S S S S S S S S  
---------------------------------------|---------------------------------|
---------------------------------------|---------------------------------|
---------------------------------------|---------------------------------|
--8--8-8-8-8-8-8-10--10-10-10-10-10-10-|--0--0-----------------------0-0-|


  E  S S S S S S S S S S S S S S    E  S S S S S S S S S S S S S S  
---------------------------------|---------------------------------|
---------------------------------|---------------------------------|
---------------------------------|---------------------------------|
--0--0-----------------------0-0-|--8--8-8-8-8-8-8-8-8-8-8-8-8-8-8-|


  E  S S S S S S E  S S S S S S    E  S S S S S S S S S S S S S S  
--------------------------------|---------------------------------|
--------------------------------|---------------------------------|
--------------------------------|---------------------------------|
--5--5-5-5-5-5-5-3--3-3-3-3-3-3-|--0--0-----------------------0-0-|


  E  S S S S S S S S S S S S S S    E  S S S S S S S S S S S S S S  
---------------------------------|---------------------------------|
---------------------------------|---------------------------------|
---------------------------------|---------------------------------|
--0--0-----------------------0-0-|--8--8-8-8-8-8-8-8-8-8-8-8-8-8-8-|


  E  S S S S S S E  S S S S S S    E  S S S S S S S S S S S S S S  
--------------------------------|---------------------------------|
--------------------------------|---------------------------------|
--------------------------------|---------------------------------|
--5--5-5-5-5-5-5-3--3-3-3-3-3-3-|--0--0-0-0-0-0-0-0-0-0-0-0-0-0-0-|


  E  S S S S S S S S S S S S S S    E  S S S S S S S S S S S S S S  
---------------------------------|---------------------------------|
---------------------------------|---------------------------------|
---------------------------------|---------------------------------|
--0--0-0-0-0-0-0-0-0-0-0-0-0-0-0-|--3--3-3-3-3-3-3-3-3-3-3-3-3-3-3-|


  E  S S S S S S S S S S S S S S    E  S S S S S S S S S S S S S S  
---------------------------------|---------------------------------|
---------------------------------|---------------------------------|
---------------------------------|---------------------------------|
--8--8-8-8-8-8-8-8-8-8-8-8-8-8-8-|--7--7-7-7-7-7-7-7-7-7-7-7-7-7-7-|


  E  S S S S S S S S S S S S S S    E  S S S S S S S S S S S S S S  
---------------------------------|---------------------------------|
---------------------------------|---------------------------------|
---------------------------------|---------------------------------|
--0--0-0-0-0-0-0-0-0-0-0-0-0-0-0-|--3--3-3-3-3-3-3-3-3-3-3-3-3-3-3-|


  E  S S S S S S S S S S S S S S    E  S S S S S S S S S S S S S S  
---------------------------------|---------------------------------|
---------------------------------|---------------------------------|
---------------------------------|---------------------------------|
--8--8-8-8-8-8-8-8-8-8-8-8-8-8-8-|--7--7-7-7-7-7-7-7-7-7-7-7-7-7-7-|


  S S S S S S S S S S S S S T T T T T T  
----------------------------------------|
----------------------------------------|
----------------------------------------|
--L-0-0---------------------0-0-0-0-0-0-|


  E  S S S S S S S S S S S T T T T T T    E  S S S S S S  E   S  S  S  S  S  S  
---------------------------------------|---------------------------------------|
---------------------------------------|---------------------------------------|
---------------------------------------|---------------------------------------|
--0--0-0-------------------------------|--8--8-8-8-8-8-8-10--10-10-10-10-10-10-|


  E  S S S S S S S S S S S T T T T T T    E  S S S S S S S S S S S T T T T T T  
---------------------------------------|---------------------------------------|
---------------------------------------|---------------------------------------|
---------------------------------------|---------------------------------------|
--0--0-0-------------------0-0-0-0-0-0-|--0--0-0-------------------------------|


  E  S S S S S S  E   S  S  S  S  S  S    E  S S S S S S S S S S S S S S  
---------------------------------------|---------------------------------|
---------------------------------------|---------------------------------|
---------------------------------------|---------------------------------|
--8--8-8-8-8-8-8-10--10-10-10-10-10-10-|--0--0-0-0-0-0-0-0-0-0-0-0-0-0-0-|


  E  S S S S S S S S S S S S S S    E  S S S S S S  E   S  S  S  S  S  S  
---------------------------------|---------------------------------------|
---------------------------------|---------------------------------------|
---------------------------------|---------------------------------------|
--0--0-0-0-0-0-0-0-0-0-0-0-0-0-0-|--8--8-8-8-8-8-8-10--10-10-10-10-10-10-|


  E  S S S S S S S S S S S S S S    E  S S S S S S S S S S S S S S  
---------------------------------|---------------------------------|
---------------------------------|---------------------------------|
---------------------------------|---------------------------------|
--0--0-0-0-0-0-0-0-0-0-0-0-0-0-0-|--0--0-0-0-0-0-0-0-0-0-0-0-0-0-0-|


  E  S S S S S S  E   S  S  S  S  S  S    E  S S S S S S  E   S  S  S  S  S  S  
---------------------------------------|---------------------------------------|
---------------------------------------|---------------------------------------|
---------------------------------------|---------------------------------------|
--8--8-8-8-8-8-8-10--10-10-10-10-10-10-|--8--8-8-8-8-8-8-10--10-10-10-10-10-10-|


  E  H.           E     S T T S S E  T T S S T T S S Q     
---------------------|------------------------------------|
---------------------|------------------------------------|
---------------------|------------------------------------|
--0------------------|----0-0-0-0-0--0-0-0-0-0-0-0-0-0----|


  S T T S S E  T T S S T T S S Q       S T T S S E  T T S S T T S S Q     
------------------------------------|------------------------------------|
------------------------------------|------------------------------------|
------------------------------------|------------------------------------|
--L-0-0-0-0-0--0-0-0-0-0-0-0-0-0----|--L-0-0-0-0-0--0-0-0-0-0-0-0-0-0----|


  S T T S S E  T T S S  S Q.        S T T S S E  T T S S T T S S Q     
---------------------------------|------------------------------------|
---------------------------------|------------------------------------|
---------------------------------|------------------------------------|
----8-8-8-8-8--8-8-8-8-10--------|----0-0-0-0-0--0-0-0-0-0-0-0-0-0----|


  S T T S S E  T T S S T T S S Q       S T T S S E  T T S S T T S S Q     
------------------------------------|------------------------------------|
------------------------------------|------------------------------------|
------------------------------------|------------------------------------|
--L-0-0-0-0-0--0-0-0-0-0-0-0-0-0----|--L-0-0-0-0-0--0-0-0-0-0-0-0-0-0----|


  S T T S S E  T T S S S Q.        E  S S S S S S S S S S S S S S  
--------------------------------|---------------------------------|
--------------------------------|---------------------------------|
--------------------------------|---------------------------------|
----8-8-8-8-8--8-8-8-8----------|--0--0-0-0-0-0-0-0-0-0-0-0-0-0-0-|


  E  S S S S S S S S S S S S S S    E  S S S S S S S S S S S S S S  
---------------------------------|---------------------------------|
---------------------------------|---------------------------------|
---------------------------------|---------------------------------|
--3--3-3-3-3-3-3-3-3-3-3-3-3-3-3-|--8--8-8-8-8-8-8-8-8-8-8-8-8-8-8-|


  E  S S S S S S S S S S S S S S    E  S S S S S S S S S S S S S S  
---------------------------------|---------------------------------|
---------------------------------|---------------------------------|
---------------------------------|---------------------------------|
--7--7-7-7-7-7-7-7-7-7-7-7-7-7-7-|--0--0-0-0-0-0-0-0-0-0-0-0-0-0-0-|


  E  S S S S S S S S S S S S S S    E  S S S S S S S S S S S S S S  
---------------------------------|---------------------------------|
---------------------------------|---------------------------------|
---------------------------------|---------------------------------|
--3--3-3-3-3-3-3-3-3-3-3-3-3-3-3-|--8--8-8-8-8-8-8-8-8-8-8-8-8-8-8-|


  E  S S S S S S S S S S S S S S    S S S S S S S S S S S S S S E   
---------------------------------|---------------------------------|
---------------------------------|---------------------------------|
---------------------------------|---------------------------------|
--7--7-7-7-7-7-7-7-7-7-7-7-7-7-7-|--L-0-0-----------------------0--|


  S S S S S S S S S S S S S S S S    S S S S S S S S S S S S S S E   
----------------------------------|---------------------------------|
----------------------------------|---------------------------------|
----------------------------------|---------------------------------|
--0-0-0---------------------------|----0-0-----------------------0--|


  S S S S S S S S S S S S S S S S    S S H.           E   
----------------------------------|----------------------|
----------------------------------|----------------------|
----------------------------------|----------------------|
--0-0-0---------------------------|----0-0------------0--|


  S S S Q    Q    S S S S S    S S H.           E   
----------------------------|----------------------|
----------------------------|----------------------|
----------------------------|----------------------|
--0-0-0---------------------|----0-0------------0--|


  S S S Q    Q    S S S S S    S S H.           E     S S H.           E   
----------------------------|----------------------|----------------------|
----------------------------|----------------------|----------------------|
----------------------------|----------------------|----------------------|
--0-0-0---------------------|----0-0------------0--|--0-0-0------------L--|


  S S H.           E     S S H.           E     S Q    Q    Q    E.   
----------------------|----------------------|-----------------------|
----------------------|----------------------|-----------------------|
----------------------|----------------------|-----------------------|
----0-0------------0--|--0-0-0------------L--|----0----0----0--------|


  E  S S S S S S S S S S S S S S    E  S S S S S S S S S S S S S S  
---------------------------------|---------------------------------|
---------------------------------|---------------------------------|
---------------------------------|---------------------------------|
--3--3-3-3-3-3-3-3-3-3-3-3-3-3-3-|--8--8-8-8-8-8-8-8-8-8-8-8-8-8-8-|


  E  S S S S S S S S S S S S S S    E  S S S S S S S S S S S S S S  
---------------------------------|---------------------------------|
---------------------------------|---------------------------------|
---------------------------------|---------------------------------|
--7--7-7-7-7-7-7-7-7-7-7-7-7-7-7-|--0--0-0-0-0-0-0-0-0-0-0-0-0-0-0-|


  E  S S S S S S S S S S S S S S    E  S S S S S S S S S S S S S S  
---------------------------------|---------------------------------|
---------------------------------|---------------------------------|
---------------------------------|---------------------------------|
--3--3-3-3-3-3-3-3-3-3-3-3-3-3-3-|--8--8-8-8-8-8-8-8-8-8-8-8-8-8-8-|


  E  S S S S S S S S S S S S S S    E  S S S S S S S S S S S S S S  
---------------------------------|---------------------------------|
---------------------------------|---------------------------------|
---------------------------------|---------------------------------|
--7--7-7-7-7-7-7-7-7-7-7-7-7-7-7-|--0--0-0-0-0-0-0-0-0-0-0-0-0-0-0-|


  E  S S S S S S S S S S S S S S    E  S S S S S S S S S S S S S S  
---------------------------------|---------------------------------|
---------------------------------|---------------------------------|
---------------------------------|---------------------------------|
--2--2-2-2-2-2-2-2-2-2-2-2-2-2-2-|--8--8-8-8-8-8-8-8-8-8-8-8-8-8-8-|


  E  S S S S S S S S S S S S S S    E  S S S S S S S S S S S S S S  
---------------------------------|---------------------------------|
---------------------------------|---------------------------------|
---------------------------------|---------------------------------|
--7--7-7-7-7-7-7-7-7-7-7-7-7-7-7-|--0--0-0-0-0-0-0-0-0-0-0-0-0-0-0-|


  E  S S S S S S S S S S S S S S    E  S S S S S S S S S S S S S S  
---------------------------------|---------------------------------|
---------------------------------|---------------------------------|
---------------------------------|---------------------------------|
--2--2-2-2-2-2-2-2-2-2-2-2-2-2-2-|--8--8-8-8-8-8-8-8-8-8-8-8-8-8-8-|


  E  S S S S S S S S S S S S S S    E  S S S S S S S S S S S S S S       
---------------------------------|---------------------------------|----|
---------------------------------|---------------------------------|----|
---------------------------------|---------------------------------|----|
--7--7-7-7-7-7-7-7-7-7-7-7-7-7-7-|--7--7-7-7-7-7-7-7-7-7-7-7-7-7---|----|


  S S H.           E     S S S Q    Q    S S S S S    S S H.           E   
----------------------|----------------------------|----------------------|
----------------------|----------------------------|----------------------|
----------------------|----------------------------|----------------------|
----0-0------------0--|--0-0-0---------------------|----0-0------------0--|


  S S S Q    S S S S S S S S S    S S H.           E            
-------------------------------|----------------------|-------||
-------------------------------|----------------------|-------||
-------------------------------|----------------------|-------||
--0-0-0----------0-0-----1-1---|----0-----------------|-------||




Duration Legend
---------------
W - whole
H - half
Q - quarter
E - 8th
S - 16th
T - 32nd
X - 64th
. - note dotted
|-n-|  - n-tuplets


Tablature Legend
----------------
L - tied note
x - dead note
g - grace note
(n) - ghost note
> - accentuded note
NH - natural harmonic
AH - artificial harmonic
TH - tapped harmonic
SH - semi harmonic
PH - pitch harmonic
h - hammer on
p - pull off
b - bend
br - bendRelease
pb - preBend
pbr - preBendRelease
brb - bendReleaseBend
\n/ - tremolo bar dip
\n - tremolo bar dive
-/n - tremolo bar Release up
/n\ - tremolo bar inverted dip
/n - tremolo bar return
-\n - tremolo bar Release down
S - shift slide
s - legato slide
/ -  slide into from below or out of upwards
\ -  slide into from above or out of downwards
~ - vibrato
W - wide vibrato
tr - trill
TP - tremolo picking
T - tapping
S - slap
P - pop
< - fade in
^ - brush up
v - brush down





Comments


Popular I Killed The Prom Queen tabs & chords
Forgiveness Is Murder 2 Bass Tabs
Sharks In Your Mouth Bass Tabs
Columbian Necktie Tabs
My Best Wishes Tabs
Sharks In Your Mouth Tabs
Sharks In Your Mouth 1 Tabs
Sharks In Your Mouth 5 Tabs
Slain Upon My Faithful Sword Tabs
Slain Upon My Faithful Sword Intro Tabs
The Paint Brush Killer Tabs


Song lyrics



↑ Back to top | Tablatures and chords are parodies/interpretations of the original songs. You may use it for private study, scholarship, research or language learning purposes only
© 2014 AZChords.com Contact us | Privacy policy | DMCA | Add/correct tabs | Request tabs | Top 50 tabs