>
 >
Say Goodbye

Say Goodbye Guitar Tabs

I Killed The Prom Queen - Say Goodbye chords, tabs, tablatures, lyrics

Guitar lessons | Add/correct | Request | Top 50 tabs Artists:  A B C D E F G H I J K L M N O P Q R S T U V W X Y Z 0-9

Say Goodbye Guitar Tabs – I Killed The Prom Queen

CD, Sheet music, Poster

Do you like Say Goodbye? Share with your friends now
Bass TabsTabsTabs v2
Band:    I Killed The Prom Queen
Tuning:  Drop B

 +KEY+
PM. - Palm mute
PMx - mute shortly after note
* - Pinch harmonic
# - natural harmonic
\ - Slide down
/ - Slide up
x - Mute string
~ - Vibrato
^ - rapid pick (tremolo pick)
(note)- Ghost note
\\\- pick slide
(2x)- play single staff again
<<<2x - play whole part again

Notes: ok, just so you guys know, GT.1&2 are strong and GT.3 is weaker. also, I know 
this is all right, because i played all three guitars along to the real song and its as 
to perfect as it can get. if by chance i do get something wrong, comment or e-mail me at
screwed up you know why. thanks for reading this and enjoy.
_________________________________________________________

INTRO

 gt.1
|---------------------------------|
|---------------------------------|
|---------------------------------|
|---------------------------------|
|------5---3---5---8---7---5-7-8--|
|-0--0---0---0---0---0---0--------|
PM.  .    .    .    .    .    .

----------------------------------------------------------------------|
----------------------------------------------------------------------|
----------------------------------------------------------------------|
---------------------------------------------7---------------7--------|
-------5---3---5---8---7---10-8-7-----7-8-10---10-8-----8-10---10-8-7-|
--0--0---0---0---0---0---0---------8----------------10----------------|
PM.  .   .   .   .   .   .


Gt.2
|--------------------------------------------------|
|--------------------------------------------------|
|--------------------------------------------------|
|-----------------------------------0-----8-----10-|
|--0-------------------8-10-12-0----0-----8-----10-|
|--0---------------------------0----0-----8-----10-|


 Gt.3
|--------------------------------------------------|
|--------------------------------------------------|
|--------------------------------------------------|
|-----------------------------------0-----8-----10-|
|--0-------------------0--2--3-0----0-----8-----10-|
|--0-------------------0--2--3-0----0-----8-----10-|


VERSE PT.1 - play 2x

 Gts.1,2,3
|--------------------------------|
|--------------------------------|
|--------------------------------|
|--------------------------------|
|---5---3---5---8---7---5-7-8--0-|
|-0---0---0---0---0---0--------0-|
PM.   .   .   .   .   .

---------------------------------------------------------------------|
---------------------------------------------------------------------|
---------------------------------------------------------------------|
-----------------------------------------7---------------7---------0-|
----5---3---5---8---7---10-8-7----7-8-10---10-8-----8-10---10-8-7--0-|
--0---0---0---0---0---0---------8----------------10----------------0-|
PM.   .   .   .   .   .


VERSE PT.2 - play 2x

Gt.1,3
|--------------------------------|
|--------------------------------|
|--------------------------------|
|--------------------------------|
|---5---3---5---8---7---5-7-8--0-|
|-0---0---0---0---0---0--------0-|
PM.   .   .   .   .   .

---------------------------------------------------------------------|
---------------------------------------------------------------------|
---------------------------------------------------------------------|
-----------------------------------------7---------------7---------0-|
----5---3---5---8---7---10-8-7----7-8-10---10-8-----8-10---10-8-7--0-|
--0---0---0---0---0---0---------8----------------10----------------0-|
PM.   .   .   .   .   .


Gt.2
|-----------------------------------|
|-----------------------------------|
|-----------------------------------|
|-----------------------------------|
|---8---7---8---12---10----8-10-12--|
|-0---0---0---0----0----0-----------|
PM.   .   .   .   .   .

--------------------------------------------------------------------|
--------------------------------------------------------------------|
------------------------------------------------5-----------5-------|
---------------------------------8-7-5----5-7-8---8-7---7-8---8-7-5-|
-----8----7----8----12----10------------5-------------7-------------|
--0----0----0----0-----0-----0--------------------------------------|


VERSE 2 - play 2x

Gt.1
|-----------------------------------------------------------------|
|-----------------------------------------------------------------|
|------7-7-7-7-7-7-7-7-7-7-7-----------7-7-7-7-7-7-7-7-7-7-7------|
|-0----x-x-x-x-x-x-x-x-x-x-x------0----x-x-x-x-x-x-x-x-x-x-x------|
|-0----5-5-5-5-5-5-5-5-5-5-5--0-0-0----5-5-5-5-5-5-5-5-5-5-5-0-0--|
|-0---------------------------0-0-0--------------------------0-0--|
PM                            . .                            . .

-----------------------------------------------------------------------|
-----------------------------------------------------------------------|
-----------------------------------------------------------------------|
-------12---10---8----------------------------8---7-8----------7---5-7-|
--8------------------12---10---8-10-12---5---------------3-------------|
--8--8----8----8---8----8----------------5--5---5-----5--3---3---3-----|
PM   .    .    .   .    .                   .   .     .      .   .


Gt.2
|----------------------------------------------------------------------------|
|----------------------------------------------------------------------------|
|------7-7-7-7-7-7-7-7-7-7-7-----------10-10-10-10-10-10-10-10-10-10-10------|
|-0----x-x-x-x-x-x-x-x-x-x-x------0----x--x--x--x--x--x--x--x--x--x--x-------|
|-0----5-5-5-5-5-5-5-5-5-5-5--0-0-0----8--8--8--8--8--8--8--8--8--8--8---0-0-|
|-0---------------------------0-0-0--------------------------------------0-0-|
PM                            . .                                        . .

---------------------------------------------------------------------|
---------------------------------------------------------------------|
---------------------------------------------------------------------|
-------12---10---8---10---8---7-8-10--------8---7-8----------7---5-7-|
--8------------------------------------5---------------3-------------|
--8--8----8----8---8----8--------------5--5---5-----5--3---3---3-----|
PM   .    .    .   .    .                 .   .     .      .   .


Gt.3
|-----------------------------------------------------------------|
|-----------------------------------------------------------------|
|-----------------------------------------------------------------|
|-0-------------------------------0-------------------------------|
|-0---------------------------0-0-0--------------------------0-0--|
|-0---------------------------0-0-0--------------------------0-0--|
PM                            . .                            . .

---------------------------------------------------------------------|
---------------------------------------------------------------------|
---------------------------------------------------------------------|
-------12---10---8---10---8---7-8-10--------8---7-8----------7---5-7-|
--8------------------------------------5---------------3-------------|
--8--8----8----8---8----8--------------5--5---5-----5--3---3---3-----|
PM   .    .    .   .    .                 .   .     .      .   .


PRE-CHORUS

Gt.1,3
|---------------------------------|
|---------------------------------|
|---------------------------------|
|--0--0-0-0-0-0-0-0-0-0-0-0-0-0-0-|
|--0--0-0-0-0-0-0-0-0-0-0-0-0-0-0-|
|--0--0-0-0-0-0-0-0-0-0-0-0-0-0-0-|

Gt.2
|---------------------------------------------|
|---------------------------------------------|
|-----7---7---9---9---10-----12---12--14------|
|-0---x---x---x---x---x------x----x---x-------|
|-0---5---5---7---7---8------10---10--12------|
|-0-------------------------------------------|


CHORUS - play 2x

Gt.1
|----------------------------------------------------------------|
|----------------------------------------------------------------|
|----------------------------------------------------------------|
|-0--0-0-0-0-0-0-0-0-0-0-0-0-0-0-3--3-3-3-3-3-3-3-3-3-3-3-3-3-3--|
|-0--0-0-0-0-0-0-0-0-0-0-0-0-0-0-3--3-3-3-3-3-3-3-3-3-3-3-3-3-3--|
|-0--0-0-0-0-0-0-0-0-0-0-0-0-0-0-3--3-3-3-3-3-3-3-3-3-3-3-3-3-3--|


-----------------------------------------------------------------------|
-----------------------------------------------------------------------|
-----------------------------------------------------------------------|
--8--8-8-8-8-8-8-8-8-8-8-8-8-8-8--7-------5-7---8-7--------7-----------|
--8--8-8-8-8-8-8-8-8-8-8-8-8-8-8--7----0------0-----0-10-0---0-8-0-10--|
--8--8-8-8-8-8-8-8-8-8-8-8-8-8-8--7------------------------------------|
PM                                     .      .     .    .   .   .


Gt.2
|----------------------------------------------------------------|
|----------------------------------------------------------------|
|----------------------------------------------------------------|
|-0--0-0-0-0-0-0-0-0-0-0-0-0-0-0-3--3-3-3-3-3-3-3-3-3-3-3-3-3-3--|
|-0--0-0-0-0-0-0-0-0-0-0-0-0-0-0-3--3-3-3-3-3-3-3-3-3-3-3-3-3-3--|
|-0--0-0-0-0-0-0-0-0-0-0-0-0-0-0-3--3-3-3-3-3-3-3-3-3-3-3-3-3-3--|

-----------------------------------------------------------------------|
-----------------------------------------------------------------------|
-----------------------------------------------------------------------|
--8--8-8-8-8-8-8-8-8-8-8-8-8-8-8--7------------------------------------|
--8--8-8-8-8-8-8-8-8-8-8-8-8-8-8--7----0--7-8-0--10-8--0-7-0-8-0-5-0-7-|
--8--8-8-8-8-8-8-8-8-8-8-8-8-8-8--7------------------------------------|
PM                                     .      .        .   .   .   .

Gt.3
|----------------------------------------------------------------|
|----------------------------------------------------------------|
|----7-7-7-7-7-7-7-7-7-7-7-7-7-7-7-5--5-5-5-5-5-5-5-5-5-5-5-5-5--|
|-0--x-x-x-x-x-x-x-x-x-x-x-x-x-x-x-x--x-x-x-x-x-x-x-x-x-x-x-x-x--|
|-0--5-5-5-5-5-5-5-5-5-5-5-5-5-5-5-3--3-3-3-3-3-3-3-3-3-3-3-3-3--|
|-0--------------------------------------------------------------|

-----------------------------------------------------------------------|
-----------------------------------------------------------------------|
-----101010101010109-9-9-9-9-9-9---------------------------------------|
--8--x-x-x-x-x-x-x-x-x-x-x-x-x-x--7-------5-7---8-7--------7-----------|
--8--8-8-8-8-8-8-8-7-7-7-7-7-7-7--7----0------0-----0-10-0---0-8-0-10--|
--8-------------------------------7------------------------------------|
PM                                     .      .     .    .   .   .


PRE-VERSE - play 2x

Gt.1
|--------------------------------|
|--------------------------------|
|--------------------------------|
|--------------------------------|
|---5---3---5---8---7---5-7-8--0-|
|-0---0---0---0---0---0--------0-|
PM.   .   .   .   .   .

---------------------------------------------------------------------|
---------------------------------------------------------------------|
---------------------------------------------------------------------|
-----------------------------------------7---------------7---------0-|
----5---3---5---8---7---10-8-7----7-8-10---10-8-----8-10---10-8-7--0-|
--0---0---0---0---0---0---------8----------------10----------------0-|
PM.   .   .   .   .   .

Gt.2,3
|------------------------------------------------------------------------------|
|------------------------------------------------------------------------------|
|------------------------------------------------------------------------------|
|----------------------------------------------------------------------------0-|
|-0--0-------------------0---0-0--0-0-------------8--8-8-8--10--10-10-10-10--0-|
|-0--0-------------------0---0-0--0-0----0--0--0--8--8-8-8--10--10-10-10-10--0-|
PM.  .                   .   . .  . .    .  .  .


VERSE - play 2x

Gt.1,3
|--------------------------------|
|--------------------------------|
|--------------------------------|
|--------------------------------|
|---5---3---5---8---7---5-7-8--0-|
|-0---0---0---0---0---0--------0-|
PM   .   .   .   .   .   .

---------------------------------------------------------------------|
---------------------------------------------------------------------|
---------------------------------------------------------------------|
-----------------------------------------7---------------7---------0-|
----5---3---5---8---7---10-8-7----7-8-10---10-8-----8-10---10-8-7--0-|
--0---0---0---0---0---0---------8----------------10----------------0-|
PM.   .   .   .   .   .


Gt.2
|-----------------------------------|
|-----------------------------------|
|-----------------------------------|
|-----------------------------------|
|---8---7---8---12---10----8-10-12--|
|-0---0---0---0----0----0-----------|
PM.   .   .   .   .   .

--------------------------------------------------------------------|
--------------------------------------------------------------------|
------------------------------------------------5-----------5-------|
---------------------------------8-7-5----5-7-8---8-7---7-8---8-7-5-|
-----8----7----8----12----10------------5-------------7-------------|
--0----0----0----0-----0-----0--------------------------------------|


END VERSE WITH:

Gt.1
|----------------------------------------------------------------------|
|----------------------------------------------------------------------|
|----------------------------------------------------------------------|
|----------7---------------7------------------7---------------7--------|
|---7-8-10---10-8-----8-10---10-8-7----7-8-10---10-8-----8-10---10-8-7-|
|-8----------------10----------------8----------------10---------------|

Gt.2
|-----------------------------------------------------------|
|-----------------------------------------------------------|
|---------5-----------5-----------------5-----------5-------|
|---5-7-8---8-7---7-8---8-7-5-----5-7-8---8-7---7-8---8-7-5-|
|-5-------------7---------------5-------------7-------------|
|-----------------------------------------------------------|


EFFECTS RIFF

Gt.3
|-----------------------------|
|-----------------------------| < play this with fade and use
|-----------------------------| < either effects or a whammy
|-----------------------------| < bar to dim the notes.
|-000-000-000-000-000-000-000-|
|-000-000-000-000-000-000-000-|
PM... ... ... ... ... ... ...

BRIDGE PT.1
                            Anyway, the notes are the way they are to hopefully
Gt.1                 (3x)  help you with the rhythm even though its pretty easy.
|---------------------------|------------------------------------------|
|---------------------------|------------------------------------------|
|---------------------------|-------------------------------------7-9--|
|---------------------------|------------------------------7-8-10------|
|-000-0-0---000-0-000-0-0---|-888-8-8---888-101010--7-8-10-------------|
|-000-0-0---000-0-000-0-0---|-888-8-8---888-101010---------------------|
PM... . .   ... . ... . .     ... . .   ...  . . .  . . .

Gt.2                  (3x)
|---------------------------|------------------------------------------------|
|---------------------------|------------------------------------------------|
|---------------------------|-----------------------------------------10-12--|
|---------------------------|--------------------------------10-12-14--------|
|-000-0-0---000-0-000-0-0---|-888-8-8---888-101010--10-12-14-----------------|
|-000-0-0---000-0-000-0-0---|-888-8-8---888-101010---------------------------|
PM... . .   ... . ... . .     ... . .   ...  . . .  .  .  .

BRIDGE PT.2

Gt.1
|-----------------------------------------------------------------|
|-----------------------------------------------------------------|
|-----------------------------------------------------------------|
|-----------------------------------------------------------------|
|-000-0-0---000-0-000-0-0-5--7-8-000-0-0---000-0-000-0-0-10--8-7--|
|-000-0-0---000-0-000-0-0--------000-0-0---000-0-000-0-0----------|
PM... . .   ... . ... . .        ... . .   ... . ... . .

-------------------------------------------------------------------------|
-------------------------------------------------------------------------|
------------------------------------------------------5h7p5--------------|
-------------------------------------------------------------9-7-5-------|
--000-0-0---000-0-000-0-0-5--7-8-888-8-8---888-101010--------------9-7-5-|
--000-0-0---000-0-000-0-0--------888-8-8---888-101010--------------------|
PM... . .   ... . ... . .        ... . .   ... . . .


Gt.2
|---------------------------------------------------------------------|
|---------------------------------------------------------------------|
|---------------------------------------------------------------------|
|---------------------------------------------------------------------|
|-000-0-0---000-0-000-0-0-8--10-12-000-0-0---000-0-000-0-0-13--12-10--|
|-000-0-0---000-0-000-0-0----------000-0-0---000-0-000-0-0------------|
PM... . .   ... . ... . .          ... . .   ... . ... . .


-------------------------------------------------------------------------------|
-------------------------------------------------------------------------------|
-------------------------------------------------------------------------------|
--------------------------------------------------------9h10p9-----------------|
---------------------------------------------------------------12-10-9---------|
--000-0-0---000-0-000-0-0-8--10-12-888-8-8---888-101010----------------12-10-9-|
--000-0-0---000-0-000-0-0----------888-8-8---888-101010------------------------|
PM... . .   ... . ... . .          ... . .   ... . . .


Gt.2
|---------------------------------------------------------------------|
|---------------------------------------------------------------------|
|---------------------------------------------------------------------|
|---------------------------------------------------------------------|
|-000-0-0---000-0-000-0-0----------000-0-0---000-0-000-0-0------------|
|-000-0-0---000-0-000-0-0----------000-0-0---000-0-000-0-0------------|
PM... . .   ... . ... . .          ... . .   ... . ... . .


-------------------------------------------------------------------------|
-------------------------------------------------------------------------|
-------------------------------------------------------------------------|
-------------------------------------------------------------------------|
-------------------------------------------------------------------------|
--000-0-0---000-0-000-0-0----------888-8-8---888-101010------------------|
--000-0-0---000-0-000-0-0----------888-8-8---888-101010------------------|
PM... . .   ... . ... . .          ... . .   ... . . .


CHORUS - play 2x

Gt.1
|----------------------------------------------------------------|
|----------------------------------------------------------------|
|----------------------------------------------------------------|
|-0--0-0-0-0-0-0-0-0-0-0-0-0-0-0-3--3-3-3-3-3-3-3-3-3-3-3-3-3-3--|
|-0--0-0-0-0-0-0-0-0-0-0-0-0-0-0-3--3-3-3-3-3-3-3-3-3-3-3-3-3-3--|
|-0--0-0-0-0-0-0-0-0-0-0-0-0-0-0-3--3-3-3-3-3-3-3-3-3-3-3-3-3-3--|

-----------------------------------------------------------------------|
-----------------------------------------------------------------------|
-----------------------------------------------------------------------|
--8--8-8-8-8-8-8-8-8-8-8-8-8-8-8--7-------5-7---8-7--------7-----------|
--8--8-8-8-8-8-8-8-8-8-8-8-8-8-8--7----0------0-----0-10-0---0-8-0-10--|
--8--8-8-8-8-8-8-8-8-8-8-8-8-8-8--7------------------------------------|
PM                                     .      .     .    .   .   .


Gt.2
|----------------------------------------------------------------|
|----------------------------------------------------------------|
|----------------------------------------------------------------|
|-0--0-0-0-0-0-0-0-0-0-0-0-0-0-0-3--3-3-3-3-3-3-3-3-3-3-3-3-3-3--|
|-0--0-0-0-0-0-0-0-0-0-0-0-0-0-0-3--3-3-3-3-3-3-3-3-3-3-3-3-3-3--|
|-0--0-0-0-0-0-0-0-0-0-0-0-0-0-0-3--3-3-3-3-3-3-3-3-3-3-3-3-3-3--|


-----------------------------------------------------------------------|
-----------------------------------------------------------------------|
-----------------------------------------------------------------------|
--8--8-8-8-8-8-8-8-8-8-8-8-8-8-8--7------------------------------------|
--8--8-8-8-8-8-8-8-8-8-8-8-8-8-8--7----0--7-8-0--10-8--0-7-0-8-0-5-0-7-|
--8--8-8-8-8-8-8-8-8-8-8-8-8-8-8--7------------------------------------|
PM                                     .      .        .   .   .   .


Gt.3
|----------------------------------------------------------------|
|----------------------------------------------------------------|
|----7-7-7-7-7-7-7-7-7-7-7-7-7-7-7-5--5-5-5-5-5-5-5-5-5-5-5-5-5--|
|-0--x-x-x-x-x-x-x-x-x-x-x-x-x-x-x-x--x-x-x-x-x-x-x-x-x-x-x-x-x--|
|-0--5-5-5-5-5-5-5-5-5-5-5-5-5-5-5-3--3-3-3-3-3-3-3-3-3-3-3-3-3--|
|-0--------------------------------------------------------------|

-----------------------------------------------------------------------|
-----------------------------------------------------------------------|
-----101010101010109-9-9-9-9-9-9---------------------------------------|
--8--x-x-x-x-x-x-x-x-x-x-x-x-x-x--7-------5-7---8-7--------7-----------|
--8--8-8-8-8-8-8-8-7-7-7-7-7-7-7--7----0------0-----0-10-0---0-8-0-10--|
--8-------------------------------7------------------------------------|
PM                                     .      .     .    .   .   .


BRIDGE 2

Gt.1
|-------------------------------------------------------------------|
|-------------------------------------------------------------------|
|-------------------------------------------------------------------|
|------7---8---5---7-------5-----------5---7---8---7---5------------|
|-0-0------------------8-------7---8-----------------------8h10p8-7-|
|-0-0----0---0---0---0---0---0---0---0---0---0---0---0---0----------|
PM. .    .   .   .   .   .   .   .   .   .   .   .   .   .

|---------------------------------------------------------------|
|-------------------------------------------------------------8-|
|------------------------------------------------------7-9-10---|
|-----7---8---5---7-------5-----------5---7---8-7-8-10----------|
|-0-0-----------------8-------7---8-----------------------------|
|-0-0---0---0---0---0---0---0---0---0---0---0-------------------|
PM. .   .   .   .   .   .   .   .   .   .   . . . . .


Gt.2,3
|-----------------------------------------------------------------------------|
|-----------------------------------------------------------------------------|
|-----------------------------------------------------------------------------|
|-----------------------------------------------------------------------------|
|-0-0-------------------0---0-0-0---------------0-0-----------------0---0-0-0-|
|-0-0-------------------0---0-0-0---------------0-0-----------------0---0-0-0-|
PM. .                   .   . . .               . .                 .   . . .


BRIGDE 2, PART 2

Gt.1
|-------------------------------------------------------------------|
|-------------------------------------------------------------------|
|-------------------------------------------------------------------|
|------7---8---5---7-------5-----------5---7---8---7---5------------|
|-0-0------------------8-------7---8-----------------------8h10p8-7-|
|-0-0----0---0---0---0---0---0---0---0---0---0---0---0---0----------|
PM. .    .   .   .   .   .   .   .   .   .   .   .   .   .

|---------------------------------------------------------------|
|-------------------------------------------------------------8-|
|------------------------------------------------------7-9-10---|
|-----7---8---5---7-------5-----------5---7---8-7-8-10----------|
|-0-0-----------------8-------7---8-----------------------------|
|-0-0---0---0---0---0---0---0---0---0---0---0-------------------|
PM. .   .   .   .   .   .   .   .   .   .   . . . . .


Gt.2
|--------------------------------------------------------------------|
|--------------------------------------------------------------------|
|--------------------------------------------------------------------|
|--------------------------------------------------------------------|
|-0-0--8---10---7---8---5---7---3---5---7---8---10---8---7---5h7p5-3-|
|-0-0----0----0---0---0---0---0---0---0---0---0----0---0---0---------|
PM. .    .    .   .   .   .   .   .   .   .   .    .   .   .

|-------------------------------------------------------------------|
|-------------------------------------------------------------------|
|-----------------------------------------------------------------9-|
|---------------------------------------------------------8-10-12---|
|-0-0-8---10---7---8---5---7---3---5---7---8---10-8-10-12-----------|
|-0-0---0----0---0---0---0---0---0---0---0---0----------------------|
PM. .   .    .   .   .   .   .   .   .   .   . .  . .  .


DEEP RIFF

Gt.1,2,3
|----------------------|-----------|
|----------------------|-----------|
|----------------------|-----------|
|----------------------|-0---0---0-|
|-0-0---------0--0-0-0-|-0---0---0-|
|-0-0---------0--0-0-0-|-0---0---0-|
PM. .         .  . . .           x


CHORUS - play 2x (note: first time play without the part specified)

Gt.1
|--------------------------------|---------------------------------|
|--------------------------------|---------------------------------|
|--------------------------------|---------------------------------|
|-0--0-0-0-0-0-0-0-0-0-0-0-0-0-0-|-3--3-3-3-3-3-3-3-3-3-3-3-3-3-3--|
|-0--0-0-0-0-0-0-0-0-0-0-0-0-0-0-|-3--3-3-3-3-3-3-3-3-3-3-3-3-3-3--|
|-0--0-0-0-0-0-0-0-0-0-0-0-0-0-0-|-3--3-3-3-3-3-3-3-3-3-3-3-3-3-3--|

-----------------------------------------------------------------------|
-----------------------------------------------------------------------|
-----------------------------------------------------------------------|
--8--8-8-8-8-8-8-8-8-8-8-8-8-8-8--7-------5-7---8-7--------7-----------|
--8--8-8-8-8-8-8-8-8-8-8-8-8-8-8--7----0------0-----0-10-0---0-8-0-10--|
--8--8-8-8-8-8-8-8-8-8-8-8-8-8-8--7------------------------------------|
PM                                     .      .     .    .   .   .


Gt.2
|--------------------------------|---------------------------------|
|--------------------------------|---------------------------------|
|--------------------------------|---------------------------------|
|-0--0-0-0-0-0-0-0-0-0-0-0-0-0-0-|-3--3-3-3-3-3-3-3-3-3-3-3-3-3-3--|
|-0--0-0-0-0-0-0-0-0-0-0-0-0-0-0-|-3--3-3-3-3-3-3-3-3-3-3-3-3-3-3--|
|-0--0-0-0-0-0-0-0-0-0-0-0-0-0-0-|-3--3-3-3-3-3-3-3-3-3-3-3-3-3-3--|

-----------------------------------------------------------------------|
-----------------------------------------------------------------------|
-----------------------------------------------------------------------|
--8--8-8-8-8-8-8-8-8-8-8-8-8-8-8--7------------------------------------|
--8--8-8-8-8-8-8-8-8-8-8-8-8-8-8--7----0--7-8-0--10-8--0-7-0-8-0-5-0-7-|
--8--8-8-8-8-8-8-8-8-8-8-8-8-8-8--7------------------------------------|
PM                                     .      .        .   .   .   .

Gt.3
|----------------------------------|-------------------------------|
|----------------------------------|-------------------------------|
|----7-7-7-7-7-7-7-7-7-7-7-7-7-7-7-|-5--5-5-5-5-5-5-5-5-5-5-5-5-5--|
|-0--x-x-x-x-x-x-x-x-x-x-x-x-x-x-x-|-x--x-x-x-x-x-x-x-x-x-x-x-x-x--|
|-0--5-5-5-5-5-5-5-5-5-5-5-5-5-5-5-|-3--3-3-3-3-3-3-3-3-3-3-3-3-3--|
|-0--------------------------------|-------------------------------|


-----------------------------------------------------------------------|
-----------------------------------------------------------------------|
-----101010101010109-9-9-9-9-9-9---------------------------------------|
--8--x-x-x-x-x-x-x-x-x-x-x-x-x-x--7-------5-7---8-7--------7-----------|
--8--8-8-8-8-8-8-8-7-7-7-7-7-7-7--7----0------0-----0-10-0---0-8-0-10--|
--8-------------------------------7------------------------------------|
PM                                     .      .     .    .   .   .


CHORUS EXTENSION - play 2x

Gt.1
|------------------------------------------------------------------|
|------------------------------------------------------------------|
|------------------------------------------------------------------|
|---0-------------------------------3------------------------------|
|-0-0-000-000-000-000-000-000-000-0-3-333-333-333-333-333-333-333--|
|-0-0-000-000-000-000-000-000-000-0-3-333-333-333-333-333-333-333--|
PM.   ... ... ... ... ... ... ... .   ... ... ... ... ... ... ...

---------------------------------------------------------------------------|
---------------------------------------------------------------------------|
---------------------------------------------------------------------------|
----8-------------------------------10-------------------------------------|
--3-8-888-888-888-888-888-888-888-8-10-101010-101010-101010-101010-101010--|
--3-8-888-888-888-888-888-888-888-8-10-101010-101010-101010-101010-101010--|
PM.   ... ... ... ... ... ... ... .    . . .  . . .  . . .  . . .  . . .

--------------------------------------------------------|
--------------------------------------------------------|
--------------------------------------------------------|
-------------------7-------5-7---8-7--------7-----------|
--101010-101010-10-7----0------0-----0-10-0---0-8-0-10--|
--101010-101010-10-7------------------------------------|
PM. . .  . . .  .       .      .     .    .   .   .


Gt.2
|------------------------------------------------------------------|
|------------------------------------------------------------------|
|------------------------------------------------------------------|
|---0-------------------------------3------------------------------|
|-0-0-000-000-000-000-000-000-000-0-3-333-333-333-333-333-333-333--|
|-0-0-000-000-000-000-000-000-000-0-3-333-333-333-333-333-333-333--|
PM.   ... ... ... ... ... ... ... .   ... ... ... ... ... ... ...

---------------------------------------------------------------------------|
---------------------------------------------------------------------------|
---------------------------------------------------------------------------|
----8-------------------------------10-------------------------------------|
--3-8-888-888-888-888-888-888-888-8-10-101010-101010-101010-101010-101010--|
--3-8-888-888-888-888-888-888-888-8-10-101010-101010-101010-101010-101010--|
PM.   ... ... ... ... ... ... ... .    . . .  . . .  . . .  . . .  . . .

--------------------------------------------------------|
--------------------------------------------------------|
--------------------------------------------------------|
-------------------7------------------------------------|
--101010-101010-10-7----0--7-8-0--10-8--0-7-0-8-0-5-0-7-|
--101010-101010-10-7------------------------------------|
PM. . .  . . .  .       .      .        .   .   .   .


gt.3
|----------------------------------|-------------------------------|
|----------------------------------|-------------------------------|
|----7-7-7-7-7-7-7-7-7-7-7-7-7-7-7-|-5--5-5-5-5-5-5-5-5-5-5-5-5-5--|
|-0--x-x-x-x-x-x-x-x-x-x-x-x-x-x-x-|-x--x-x-x-x-x-x-x-x-x-x-x-x-x--|
|-0--5-5-5-5-5-5-5-5-5-5-5-5-5-5-5-|-3--3-3-3-3-3-3-3-3-3-3-3-3-3--|
|-0--------------------------------|-------------------------------|

-----------------------------------------------------------------------|
-----------------------------------------------------------------------|
-----101010101010109-9-9-9-9-9-9---------------------------------------|
--8--x-x-x-x-x-x-x-x-x-x-x-x-x-x--7-------5-7---8-7--------7-----------|
--8--8-8-8-8-8-8-8-7-7-7-7-7-7-7--7----0------0-----0-10-0---0-8-0-10--|
--8-------------------------------7------------------------------------|
PM                                     .      .     .    .   .   .


AFTER CHORUS (note: let last note ring.)

Gt.1
|----------------------------------------|
|----------------------------------------|
|----------------------------------------|
|-7-------5-7---8-7--------7-------------|
|-7----0------0-----0-10-0---0-8-0-10----|
|-7--------------------------------------|
PM     .      .     .    .   .   .

Gt.2
|-----------------------------------------|
|-----------------------------------------|
|-----------------------------------------|
|-7---------------------------------------|
|-7----0--7-8-0--10-8--0-7-0-8-0-5-0-7----|
|-7---------------------------------------|
PM     .      .        .   .   .   .

|-----------------------------------------|
|-----------------------------------------|
|-----------------------------------------|
|-7---------------------------------------|
|-7---------------------------------------|
|-7---------------------------------------|
PMx


OUTRO

Gt.1
|-------------------------------------------------------------------|
|-------------------------------------------------------------------|
|-------------------------------------------------------------------|
|------7---8---5---7-------5-----------5---7---8---7---5------------|
|-0-0------------------8-------7---8-----------------------8h10p8-7-|
|-0-0----0---0---0---0---0---0---0---0---0---0---0---0---0----------|
PM. .    .   .   .   .   .   .   .   .   .   .   .   .   .

|-----------------------------------------------|
|-----------------------------------------------|
|-----------------------------------------------|
|-----7---8---5---7-------5-----------5---7---8-|
|-0-0-----------------8-------7---8-------------|
|-0-0---0---0---0---0---0---0---0---0---0---0---|
PM. .   .   .   .   .   .   .   .   .   .   .


Gt.2
|--------------------------------------------------------------------|
|--------------------------------------------------------------------|
|--------------------------------------------------------------------|
|--------------------------------------------------------------------|
|-0-0--8---10---7---8---5---7---3---5---7---8---10---8---7---5h7p5-3-|
|-0-0----0----0---0---0---0---0---0---0---0---0----0---0---0---------|
PM. .    .    .   .   .   .   .   .   .   .   .    .   .   .

|--------------------------------------------------|
|--------------------------------------------------|
|--------------------------------------------------|
|--------------------------------------------------|
|-0-0-8---10---7---8---5---7---3---5---7---8---10--|
|-0-0---0----0---0---0---0---0---0---0---0---0-----|
PM. .   .    .   .   .   .   .   .   .   .   .

Gt.3
|-----------------------------------------------------------------------------|
|-----------------------------------------------------------------------------|
|-----------------------------------------------------------------------------|
|-----------------------------------------------------------------------------|
|-0-0-------------------0---0-0-0---------------0-0-----------------0---0-0-0-|
|-0-0-------------------0---0-0-0---------------0-0-----------------0---0-0-0-|
PM. .                   .   . . .               . .                 .   . . .

END ON

Gt.1,2,3
|-----------------|
|-----------------|
|-----------------|
|---------------0-|
|-0--0---1--1---0-|
|-0--0---1--1---0-|
PM.  .   .  .

please rate fairly - for how good the tab is, not for how confusing it is.





Comments


Popular I Killed The Prom Queen tabs & chords
Forgiveness Is Murder Bass Tabs
Say Goodbye Bass Tabs
To Kill Tomorrow Bass Tabs
Deepest Sleep Intro Tabs
Headfirst From A Hangmans Noose Tabs
Sharks In Your Mouth Tabs
Sharks In Your Mouth 3 Tabs
Slain Upon My Faithful Sword Intro Tabs
Sleepless Nights And City Lights Tabs
Your Shirt Would Look Better With A Columbian Neck-Tie 2 Tabs


Song lyrics



↑ Back to top | Tablatures and chords are parodies/interpretations of the original songs. You may use it for private study, scholarship, research or language learning purposes only
© 2014 AZChords.com Contact us | Privacy policy | DMCA | Add/correct tabs | Request tabs | Top 50 tabs