» » »

I Killed The Prom Queen, My Best Wishes Tabs (ver.1)

Artists:  A B C D E F G H I J K L M N O P Q R S T U V W X Y Z # 

My Best Wishes Tabs (ver.1)

I Killed The Prom Queen Tabs
Rating:
0/5 (0 votes)
My Best Wishes lessons Tabs too difficult? Try these video lessons and learn fast
                Song : My Best Wishes

    Artist : I Killed The Prom Queen

       Album : Goodbye Means Forever


                Tuning : Drop C (CGCFAD)
                         I know that it is not quite exact because at some parts
things are mixed up, like the palm mute stars and such, but if you know the somg
good it shouldnt be much of a problem.

Intro :
 ----------------------------------------------------------------------------|
-----------------------------------------------------------------------------|
-------------------2"------------3"--2b-----5"-3"--2"------------------------|
----3"--2"--3"------3"--2"------------------------------5"--3"--2"-----------|
-----------------------------------------------------------------------------|
-----------------------------------------------------------------------------|

Verse :

----------------------------------------------------------------------------------------|
----------------------------------------------------------------------------------------|
-----------------2"--------------5"--3"--2"------------------5"--3"--2"-----------------|
--3"--2"--3"------3"--2"--------------------5"--3"--2"------------------5"--3"--2"------|
----------------------------------------------------------------------------------------|
----------------------------------------------------------------------------------------|
( Im not exactly sure, I know that he plays those  parts but the order and
amount of times he plays it is hard to hear.)


---------------------------------------------------|
---------------------------------------------------|
---------------------------------------------------|
---------------------------7-----------------------|
--5------7-------8--------------8------7-----------|
----0-0----0-0----0-0---0-0---0-0------------------|
      * *      *  *      *  *    *   *    *  *

----------------------------------------------------|
----------------------------------------------------|
----------------------------------------------------|
-8------7------5------8------7------5---------------|
----------------------------------------------------|
---5-5---5-5---5-5----5-5---5-5----5-5--------------|
    *  *     *  *    *  *      *  *    *  *      *  *

-----------------------------------|
-----------------------------------|
--5"--3"--2"-----------------------|
-----------------5"--3"--2"--------|
-----------------------------------|
-----------------------------------|

---------------------------------------------------------------------|
---------------------------------------------------------------------|
---------------------------------------------------------------------|
--10--------8--------7-----------------------------------------------|
--------------------------------10------------8------------7---------|
-------8-8-----8-8------8---10-10-10-10-10-10-10---------------------|
         *  *       *  *         *           *    *         *    *

-----------------------------------|
-----------------------------------|
-5"--3"--2"------------------------|
----------------5"--3"---2"--------|
-----------------------------------|
-----------------------------------|

 Pre-Chorus :

---------------------------------------------------------------------|
---------------------------------------------------------------------|
---------------------------------------------------------------------|
--10--------8--------7-----------------------------------------------|
--------------------------------10------------8------------7---------|
-------8-8-----8-8------8---10-10-10-10-10-10-10---------------------|
         *  *       *  *         *           *    *         *    *

----------------------------|
----------------------------|
--/5--3--2--3--2--0---------|
----------------------------|
----------------------------|
----------------------------|

 Chorus :

------------------------------------------------------------------|
------------------------------------------------------------------|
-10----------15---------15/--17\-14--------/-12-/-10/-9-----------|
--x--(x12)---x--(x10)--x/----x\----x-(x12)/--x-/----x-/--x-(x12)--|      x2
--8----------13---------13/--15\-12-------/--10/---8-/--7---------|
------------------------------------------------------------------|


Then you do the verse again, but without the first tremolo picking part.    x2


----------------------------------------------|
----------------------------------------------|
-/5-3-2-3-2-0---------------------------------|
-------------------7-5-3-5-3-2-----0----------|
----------------------------------------0-----|
----------------------------------------0-----|

Breakdown :

-------------------------------------------------------------------------------------|
-------------------------------------------------------------------------------------|
-------------------------------------------------------------------------------------|
--------------------------DRUM FILL-----------------------333--111-------------------|
-----------------------------------------------------------------333--111------------|
-000-000-000-000------------------000-000-000---333--111-----------------------------|
  ***    ***   ***   * * *                       ***    ***   ***      * * *   * * *

-----------------------------------------------------------------------|
-----------------------------------------------------------------------|
-----------------------------------------------------------------------|
-------------------------------------------------------------333--111--|                       x2
-------------------------------------------------------------333--111--|
-000-000-000-000-000-000-000-000-000---333--111------------------------|
x2 (While playing this part keep the 10th fret held down.)
  ***   * * *  ***   * * *  ***   * * *  ***   * **   ***      ***     * * *

-10--13t"--15t"--20t"-------------------------------|
----------------------------------------------------|
----------------------------------------------------|
------------------------------333--111--------------|
------------------------------333--111--------------|
------------------------------333--111--------------|
                                      * * *   * * *

Chorus - Do it one extra time.


Outro :

------------------------------------------------------|
------------------------------------------------------|
------------------------------------------------------|
-3-0-5-0-7-0-8-0-7-0-8-0-10-0-12-0--------------------|
------------------------------------------------------|
------------------------------------------------------|
Repeat until the song fades out.  You can play it all hammer ons and pull offs if you want to.

						Legend :
                                                                                     *  Palm Mute

                                                                                      "  
Tremolo Pick  (Playing alot of notes really fast)

                                                                                      t" 
 Rapidly tap the string with the side of your pick.

							  b    Bend String

							  /      Slide Up

							  \      Slide Down
            

comments powered by Disqus
↑ Back to top | I Killed The Prom Queen Tabs for My Best Wishes. Lyrics for acoustic guitar and electric guitar. Tablatures and chords are parodies/interpretations of the original songs. You may use it for private study, scholarship, research or language learning purposes only