» » »

Headfirst From A Hangmans Noose Tabs (ver.1)

Artists:  A B C D E F G H I J K L M N O P Q R S T U V W X Y Z # 

Headfirst From A Hangmans Noose Tabs (ver.1)

I Killed The Prom Queen
Rating:
0/5 (0 votes)

Hard to play? Try these video lessons and learn fast.
                " - Tremolo picking
b - Bend

-----------------------------------------------------------------------|
-------------------------------------------------------------------15--|
-12--10--12--14--12h14p12--14--15----15--14--15--17----17--15--17------|
-----------------------------------------------------------------------|
-----------------------------------------------------------------------|
-----------------------------------------------------------------------|


-------------------------------------------------------------------------|
-15------15--16----15--16----15------------------------------------------|
-----17--------------------------17--14--15----15--17--15--14----10--12--|
-------------------------------------------------------------------------|
-------------------------------------------------------------------------|
-------------------------------------------------------------------------|


------------------18------------------------20--------------------------22-----------|
--------------16------16-----------------18----18--------------------20----20--------|
----------15--------------15----------17----------17--------------19----------19-----|
------15---------------------------17----------------17--------19----------------19--|
-18---------------------------20--------------------------22-------------------------|
-------------------------------------------------------------------------------------|


|-22b--22--22b--22------------------------------------------------------|
|-----------------------------------------------------------------------|
|-------------------15h17p15h17p15h17p15h17p15h17p15h17p15h17p15h17p15--|
|-----------------------------------------------------------------------|
|-----------------------------------------------------------------------|
|-----------------------------------------------------------------------|


|---------------------------------------------|
|---------------------------------------------|
|-15p14h15p14h15p14h15p14--14p12h14p12h14p12--|
|---------------------------------------------|
|---------------------------------------------|
|---------------------------------------------|


|---------------------------|
|---------------------18"b--| <-- Trem pick the 18 while bending it
|-10"--12"--14"--15"--------|
|---------------------------|
|---------------------------|
|---------------------------|
            
Hard to play? Try these video lessons and learn fast. | Correct




comments powered by Disqus
↑ Back to top | Tablatures and chords are parodies/interpretations of the original songs. You may use it for private study, scholarship, research or language learning purposes only