>
 >
Forgiveness Is Murder 2

Forgiveness Is Murder 2 Bass Tabs

I Killed The Prom Queen - Forgiveness Is Murder 2 chords, tabs, tablatures, lyrics

Guitar lessons | Add/correct | Request | Top 50 tabs Artists:  A B C D E F G H I J K L M N O P Q R S T U V W X Y Z 0-9

Forgiveness Is Murder 2 Bass Tabs – I Killed The Prom Queen

CD, Sheet music, Poster

Do you like Forgiveness Is Murder 2? Share with your friends now
Bass TabsBass Tabs v2Tabs
Forgiveness is Murder                               
I Killed the Prom Queen



     W                   W                   W                 
D||-------------------|-------------------|-------------------|
A||-------------------|-------------------|-------------------|
F||-------------------|-------------------|-------------------|
C||-------------------|-------------------|-------------------|
G||-------------------|-------------------|-------------------|
C||-------------------|-------------------|-------------------|


                          |--3--|  |--3--|  |--3--|  |--3--|   
   Q    Q    Q    Q       E  E  E  E  E  E  E  E  E  E  E  E   
-----------------------|--------------------------------------|
-----------------------|--------------------------------------|
-----------------------|--------------------------------------|
-----------------------|--------------------------------------|
-----------------------|--------------------------------------|
--12----8----5----3----|--0--0--0--0--0--0--0--0--0--0--0--0--|


  |--3--|  |--3--|  |--3--|  |--3--|     |--3--|  |--3--|  |--3--|  |--3--|   
  E  E  E  E  E  E  E  E  E  E  E  E     E  E  E  E  E  E  E  E  E  E  E  E   
--------------------------------------|--------------------------------------|
--------------------------------------|--------------------------------------|
--------------------------------------|--------------------------------------|
--------------------------------------|--------------------------------------|
--------------------------------------|--------------------------------------|
--0--0--0--2--2--2--3--3--3--5--5--5--|--0--0--0--0--0--0--0--0--0--0--0--0--|


  |--3--|  |--3--|  |--3--|  |--3--|     |--3--|  |--3--|  |--3--|  |--3--|   
  E  E  E  E  E  E  E  E  E  E  E  E     E  E  E  E  E  E  E  E  E  E  E  E   
--------------------------------------|--------------------------------------|
--------------------------------------|--------------------------------------|
--------------------------------------|--------------------------------------|
--------------------------------------|--------------------------------------|
--------------------------------------|--------------------------------------|
--0--0--0--2--2--2--3--3--3--7--7--7--|--8--8--8--8--8--8--8--8--8--8--8--8--|


  |--3--|  |--3--|  |--3--|  |--3--|     |--3--|  |--3--|  |--3--|  |--3--|   
  E  E  E  E  E  E  E  E  E  E  E  E     E  E  E  E  E  E  E  E  E  E  E  E   
--------------------------------------|--------------------------------------|
--------------------------------------|--------------------------------------|
--------------------------------------|--------------------------------------|
--------------------------------------|--------------------------------------|
--------------------------------------|--------------------------------------|
--8--8--8--8--8--8--7--7--8--8--7--7--|--5--5--5--5--5--5--5--5--5--5--5--5--|


                      |--3--|  |--3--|  |--3--|  |--3--|   
  W                   E  E  E  E  E  E  E  E  E  E  E  E   
-------------------|--------------------------------------|
-------------------|--------------------------------------|
-------------------|--------------------------------------|
-------------------|--------------------------------------|
--3----------------|--------------------------------------|
--5----------------|--0--0--0--0--0--0--0--0--0--0--0--0--|


  |--3--|  |--3--|  |--3--|  |--3--|     |--3--|  |--3--|  |--3--|  |--3--|   
  E  E  E  E  E  E  E  E  E  E  E  E     E  E  E  E  E  E  E  E  E  E  E  E   
--------------------------------------|--------------------------------------|
--------------------------------------|--------------------------------------|
--------------------------------------|--------------------------------------|
--------------------------------------|--------------------------------------|
--------------------------------------|--------------------------------------|
--0--0--0--2--2--2--3--3--3--5--5--5--|--0--0--0--0--0--0--0--0--0--0--0--0--|


  |--3--|  |--3--|  |--3--|  |--3--|     |--3--|  |--3--|  |--3--|  |--3--|   
  E  E  E  E  E  E  E  E  E  E  E  E     E  E  E  E  E  E  E  E  E  E  E  E   
--------------------------------------|--------------------------------------|
--------------------------------------|--------------------------------------|
--------------------------------------|--------------------------------------|
--------------------------------------|--------------------------------------|
--------------------------------------|--------------------------------------|
--0--0--0--2--2--2--3--3--3--7--7--7--|--8--8--8--8--8--8--8--8--8--8--8--8--|


  |--3--|  |--3--|  |--3--|  |--3--|     |--3--|  |--3--|  |--3--|  |--3--|   
  E  E  E  E  E  E  E  E  E  E  E  E     E  E  E  E  E  E  E  E  E  E  E  E   
--------------------------------------|--------------------------------------|
--------------------------------------|--------------------------------------|
--------------------------------------|--------------------------------------|
--------------------------------------|--------------------------------------|
--------------------------------------|--------------------------------------|
--8--8--8--8--8--8--7--7--8--8--7--7--|--5--5--5--5--5--5--5--5--5--5--5--5--|


                      |--3--|  |--3--|  3             
  W                   E  E  E  E  E  E  E  Q    E  T  
-------------------|---------------------------------|
-------------------|---------------------------------|
-------------------|---------------------------------|
-------------------|---------------------------------|
--3----------------|---------------------------------|
--5----------------|--0--0--0--0--0--0--0------------|


  |--3--|  |--3--|  |----3----|       |--3--|  |--3--|  3             
  E  E  E  E  E  E  Q    Q    Q       E  E  E  E  E  E  E  Q    E  T  
-----------------------------------|---------------------------------|
-----------------------------------|---------------------------------|
-----------------------------------|---------------------------------|
-----------------------------------|---------------------------------|
-----------------------------------|---------------------------------|
--0--0--0--0--0--0--0----0----0----|--0--0--0--0--0--0--0------------|


                      NH     NH     NH                                      
  |--3--|  |--3--|    |------3------|       |--3--|  |--3--|  3             
  E  E  E  E  E  E    Q      Q      Q       E  E  E  E  E  E  E  Q    E  T  
-----------------------------------------|---------------------------------|
-----------------------------------------|---------------------------------|
-----------------------------------------|---------------------------------|
--------------------<>5----<>5----<>5----|---------------------------------|
-----------------------------------------|---------------------------------|
--0--0--0--0--0--0----0------0------0----|--0--0--0--0--0--0--0------------|


  |--3--|  |--3--|  |----3----|       |--3--|  |--3--|  3             
  E  E  E  E  E  E  Q    Q    Q       E  E  E  E  E  E  E  Q    E  T  
-----------------------------------|---------------------------------|
-----------------------------------|---------------------------------|
-----------------------------------|---------------------------------|
-----------------------------------|---------------------------------|
-----------------------------------|---------------------------------|
--0--0--0--0--0--0--0----0----0----|--0--0--0--0--0--0--0------------|


  |--3--|  |--3--|  |----3----|       |--3--|  |--3--|  3             
  E  E  E  E  E  E  Q    Q    Q       E  E  E  E  E  E  E  Q    E  T  
-----------------------------------|---------------------------------|
-----------------------------------|---------------------------------|
-----------------------------------|---------------------------------|
-----------------------------------|---------------------------------|
-----------------------------------|---------------------------------|
--0--0--0--0--0--0--0----0----0----|--0--0--0--0--0--0--0------------|


  |--3--|  |--3--|  |----3----|       |--3--|  |--3--|  3             
  E  E  E  E  E  E  Q    Q    Q       E  E  E  E  E  E  E  Q    E  T  
-----------------------------------|---------------------------------|
-----------------------------------|---------------------------------|
-----------------------------------|---------------------------------|
-----------------------------------|---------------------------------|
-----------------------------------|---------------------------------|
--0--0--0--0--0--0--0----0----0----|--0--0--0--0--0--0--0------------|


  |--3--|  |--3--|  |----3----|       |--3--|  |--3--|  3             
  E  E  E  E  E  E  Q    Q    Q       E  E  E  E  E  E  E  Q    E  T  
-----------------------------------|---------------------------------|
-----------------------------------|---------------------------------|
-----------------------------------|---------------------------------|
-----------------------------------|---------------------------------|
-----------------------------------|---------------------------------|
--0--0--0--0--0--0--0----0----0----|--0--0--0--0--0--0--0------------|


  |--3--|  |--3--|  |----3----|       |--3--|  |--3--|  3             
  E  E  E  E  E  E  Q    Q    Q       E  E  E  E  E  E  E  Q    E  T  
-----------------------------------|---------------------------------|
-----------------------------------|---------------------------------|
-----------------------------------|---------------------------------|
-----------------------------------|---------------------------------|
-----------------------------------|---------------------------------|
--0--0--0--0--0--0--0----0----0----|--0--0--0--0--0--0--0------------|


  E  H        Q    E     E  E  E  E  E  E  E  E     E  E  E  E  E  E  E  E   
----------------------|--------------------------|--------------------------|
----------------------|--------------------------|--------------------------|
----------------------|--------------------------|--------------------------|
----------------------|--------------------------|--------------------------|
----------------------|--------------------------|--------------------------|
--0-------------------|--8--8--8--8--8--8--8--8--|--8--8--8--8--8--8--8--8--|


  E  E  E  E  E  E  E  E     E  E  E  E  E  E  E  E   
--------------------------|--------------------------|
--------------------------|--------------------------|
--------------------------|--------------------------|
--------------------------|--------------------------|
--------------------------|--------------------------|
--8--8--8--8--8--8--8--8--|--8--8--8--8--8--8--8--8--|


  E  E  E  E  E  E  E  E     E  E  E  E  E  E  E  E   
--------------------------|--------------------------|
--------------------------|--------------------------|
--------------------------|--------------------------|
--------------------------|--------------------------|
--------------------------|--------------------------|
--0--0--0--0--0--0--0--0--|--0--0--0--0--0--0--0--0--|


  E  E  E  E  E  E  E  E     E  E  E  E  E  E  E  E   
--------------------------|--------------------------|
--------------------------|--------------------------|
--------------------------|--------------------------|
--------------------------|--------------------------|
--------------------------|--------------------------|
--0--0--0--0--0--0--0--0--|--0--0--0--0--0--0--0--0--|


  E  E  E  E  E  E  E  E     E  E  E  E  E  E  E  E   
--------------------------|--------------------------|
--------------------------|--------------------------|
--------------------------|--------------------------|
--------------------------|--------------------------|
--------------------------|--------------------------|
--8--8--8--8--8--8--8--8--|--8--8--8--8--8--8--8--8--|


  E  E  E  E  E  E  E  E     E  E  E  E  E  E  E  E   
--------------------------|--------------------------|
--------------------------|--------------------------|
--------------------------|--------------------------|
--------------------------|--------------------------|
--------------------------|--------------------------|
--8--8--8--8--8--8--8--8--|--8--8--8--8--8--8--8--8--|


  E  E  E  E  E  E  E  E     E  E  E  E  E  E  E  E   
--------------------------|--------------------------|
--------------------------|--------------------------|
--------------------------|--------------------------|
--------------------------|--------------------------|
--------------------------|--------------------------|
--0--0--0--0--0--0--0--0--|--0--0--0--0--0--0--0--0--|


  E  E  E  E  E  E  E  E     E  E  E  E  E  E  E  E   
--------------------------|--------------------------|
--------------------------|--------------------------|
--------------------------|--------------------------|
--------------------------|--------------------------|
--------------------------|--------------------------|
--0--0--0--0--0--0--0--0--|--0--0--0--0--0--0--0--0--|


  E  E  E  E  E  E  E  E     E  E  E  E  E  E  E  E   
--------------------------|--------------------------|
--------------------------|--------------------------|
--------------------------|--------------------------|
--------------------------|--------------------------|
--------------------------|--------------------------|
--8--8--8--8--8--8--8--8--|--8--8--8--8--8--8--8--8--|


  E  E  E  E  E  E  E  E     E  E  E  E  E  E  E  E   
--------------------------|--------------------------|
--------------------------|--------------------------|
--------------------------|--------------------------|
--------------------------|--------------------------|
--------------------------|--------------------------|
--8--8--8--8--8--8--8--8--|--8--8--8--8--8--8--8--8--|


  E  E  E  E  E  E  E  E     E  E  E  E  E  E  E  E   
--------------------------|--------------------------|
--------------------------|--------------------------|
--------------------------|--------------------------|
--------------------------|--------------------------|
--------------------------|--------------------------|
--0--0--0--0--0--0--0--0--|--0--0--0--0--0--0--0--0--|


  E  E  E  E  E  E  E  E     E  E  E  E  E  E  E  E   
--------------------------|--------------------------|
--------------------------|--------------------------|
--------------------------|--------------------------|
--------------------------|--------------------------|
--------------------------|--------------------------|
--0--0--0--0--0--0--0--0--|--0--0--0--0--0--0--0--0--|


  E  E  E  E  E  E  E  E     E  E  E  E  E  E  E  E   
--------------------------|--------------------------|
--------------------------|--------------------------|
--------------------------|--------------------------|
--------------------------|--------------------------|
--------------------------|--------------------------|
--8--8--8--8--8--8--8--8--|--8--8--8--8--8--8--8--8--|


  E  E  E  E  E  E  E  E     E  E  E  E  E  E  E  E   
--------------------------|--------------------------|
--------------------------|--------------------------|
--------------------------|--------------------------|
--------------------------|--------------------------|
--------------------------|--------------------------|
--8--8--8--8--8--8--8--8--|--8--8--8--8--8--8--8--8--|


  E  E  E  E  E  E  E  E     E  E  E  E  E  E  E  E   
--------------------------|--------------------------|
--------------------------|--------------------------|
--------------------------|--------------------------|
--------------------------|--------------------------|
--------------------------|--------------------------|
--0--0--0--0--0--0--0--0--|--0--0--0--0--0--0--0--0--|


  E  E  E  E  E  E  E  E     E  E  E  E  E  E  E  E   
--------------------------|--------------------------|
--------------------------|--------------------------|
--------------------------|--------------------------|
--------------------------|--------------------------|
--------------------------|--------------------------|
--0--0--0--0--0--0--0--0--|--0--0--0--0--0--0--0--0--|


  E  E  E  E  E  E  E  E     E  E  E  E  E  E  E  E   
--------------------------|--------------------------|
--------------------------|--------------------------|
--------------------------|--------------------------|
--------------------------|--------------------------|
--------------------------|--------------------------|
--8--8--8--8--8--8--8--8--|--8--8--8--8--8--8--8--8--|


  E  E  E  E  E  E  E  E     E  E  E  E  E  E  E  E   
--------------------------|--------------------------|
--------------------------|--------------------------|
--------------------------|--------------------------|
--------------------------|--------------------------|
--------------------------|--------------------------|
--8--8--8--8--8--8--8--8--|--8--8--8--8--8--8--8--8--|


  E  E  E  E  E  E  E  E     E  E  E  E  E  E  E  E   
--------------------------|--------------------------|
--------------------------|--------------------------|
--------------------------|--------------------------|
--------------------------|--------------------------|
--------------------------|--------------------------|
--0--0--0--0--0--0--0--0--|--0--0--0--0--0--0--0--0--|


  E  E  E  E  E  E  E  E     E  E  E  E  E  E  E  E     E  E  E  E  Q    E  E   
--------------------------|--------------------------|-------------------------|
--------------------------|--------------------------|-------------------------|
--------------------------|--------------------------|-------------------------|
--------------------------|--------------------------|-------------------------|
--------------------------|--------------------------|-------------------------|
--0--0--0--0--0--0--0--0--|--0--0--0--0--0--0--0--0--|--8--8--8--8-------8--8--|


  E  E  E  E  Q    E  E     E  E  E  E  E  E  E  E     Q    Q    Q    Q     
-------------------------|--------------------------|----------------------|
-------------------------|--------------------------|----------------------|
-------------------------|--------------------------|----------------------|
-------------------------|--------------------------|----------------------|
-------------------------|--------------------------|----------------------|
--5--5--5--5-------5--5--|--0--0--0--0--0--0--0--0--|--3----5----7----8----|


  E  E  E  E  Q    E  E     E  E  E  E  Q    E  E     E  E  E  E  E  E  E  E   
-------------------------|-------------------------|--------------------------|
-------------------------|-------------------------|--------------------------|
-------------------------|-------------------------|--------------------------|
-------------------------|-------------------------|--------------------------|
-------------------------|-------------------------|--------------------------|
--8--8--8--8-------8--8--|--5--5--5--5-------5--5--|--0--0--0--0--0--0--0--0--|


  Q    Q    Q    Q       E  E  E  E  Q    E  E     E  E  E  E  Q    E  E   
----------------------|-------------------------|-------------------------|
----------------------|-------------------------|-------------------------|
----------------------|-------------------------|-------------------------|
----------------------|-------------------------|-------------------------|
----------------------|-------------------------|-------------------------|
--3----5----7----8----|--8--8--8--8-------8--8--|--5--5--5--5-------5--5--|


  E  E  E  E  E  E  E  E     Q    Q    Q    Q       E  E  E  E  Q    E  E   
--------------------------|----------------------|-------------------------|
--------------------------|----------------------|-------------------------|
--------------------------|----------------------|-------------------------|
--------------------------|----------------------|-------------------------|
--------------------------|----------------------|-------------------------|
--0--0--0--0--0--0--0--0--|--3----5----7----8----|--8--8--8--8-------8--8--|


  E   E   E   E   E  Q    E     E  E  Q    S S S S S S S S  
-----------------------------|-----------------------------|
-----------------------------|-----------------------------|
-----------------------------|-----------------------------|
-----------------------------|-----------------------------|
--8--12--12--10--10----------|-----------------------------|
-----------------------------|--0--0-------0-0-0-0-0-0-0-0-|


  E  E  E  E  H           E  E  Q    S S S S S S S S    E  E  E  E  H         
-----------------------|-----------------------------|-----------------------|
-----------------------|-----------------------------|-----------------------|
-----------------------|-----------------------------|-----------------------|
-----------------------|-----------------------------|-----------------------|
-----------------------|-----------------------------|-----------------------|
--0--0--0--0-----------|--0--0-------0-0-0-0-0-0-0-0-|--0--0--0--0-----------|


  E  E  Q    S S S S S S S S    E  E  E  E  H         
-----------------------------|-----------------------|
-----------------------------|-----------------------|
-----------------------------|-----------------------|
-----------------------------|-----------------------|
-----------------------------|-----------------------|
--0--0-------0-0-0-0-0-0-0-0-|--0--0--0--0-----------|


                                PM PM PM PM PM PM PM PM  
  E  E  Q    S S S S S S S S    E  E  E  E  E  E  E  E   
-----------------------------|--------------------------|
-----------------------------|--------------------------|
-----------------------------|--------------------------|
-----------------------------|--------------------------|
-----------------------------|--------------------------|
--0--0-------0-0-0-0-0-0-0-0-|--0--0--0--0--0--0--0--0--|


  PM PM PM PM PM PM PM PM                                
  E  E  E  E  E  E  E  E     E  E  Q    S S S S S S S S  
--------------------------|-----------------------------|
--------------------------|-----------------------------|
--------------------------|-----------------------------|
--------------------------|-----------------------------|
--------------------------|-----------------------------|
--0--0--0--0--0--0--0--0--|--0--0-------0-0-0-0-0-0-0-0-|


  E  E  E  E  H           E  E  Q    S S S S S S S S    E  E  E  E  H         
-----------------------|-----------------------------|-----------------------|
-----------------------|-----------------------------|-----------------------|
-----------------------|-----------------------------|-----------------------|
-----------------------|-----------------------------|-----------------------|
-----------------------|-----------------------------|-----------------------|
--0--0--0--0-----------|--0--0-------0-0-0-0-0-0-0-0-|--0--0--0--0-----------|


  E  E  Q    S S S S S S S S    E  E  E  E  H         
-----------------------------|-----------------------|
-----------------------------|-----------------------|
-----------------------------|-----------------------|
-----------------------------|-----------------------|
-----------------------------|-----------------------|
--0--0-------0-0-0-0-0-0-0-0-|--0--0--0--0-----------|


  E  E  Q    S S S S S S S S    E  E  E  E  H         
-----------------------------|-----------------------|
-----------------------------|-----------------------|
-----------------------------|-----------------------|
-----------------------------|-----------------------|
-----------------------------|-----------------------|
--0--0-------0-0-0-0-0-0-0-0-|--0--0--0--0-----------|


  E  E  Q    S S S S S S S S    E  E  E  E  H         
-----------------------------|-----------------------|
-----------------------------|-----------------------|
-----------------------------|-----------------------|
-----------------------------|-----------------------|
-----------------------------|-----------------------|
--0--0-------0-0-0-0-0-0-0-0-|--0--0--0--0-----------|


  E  E  Q    S S S S S S S S    E  E  E  E  H         
-----------------------------|-----------------------|
-----------------------------|-----------------------|
-----------------------------|-----------------------|
-----------------------------|-----------------------|
-----------------------------|-----------------------|
--0--0-------0-0-0-0-0-0-0-0-|--0--0--0--0-----------|


  E  E  Q    S S S S S S S S    E  E  E  E  H         
-----------------------------|-----------------------|
-----------------------------|-----------------------|
-----------------------------|-----------------------|
-----------------------------|-----------------------|
-----------------------------|-----------------------|
--0--0-------0-0-0-0-0-0-0-0-|--0--0--0--0-----------|


  PM PM      PM PM PM PM PM PM PM PM    PM PM PM PM PM PM PM PM  
  E  E  Q    S  S  S  S  S  S  S  S     E  E  E  E  E  E  E  E   
-------------------------------------|--------------------------|
-------------------------------------|--------------------------|
-------------------------------------|--------------------------|
-------------------------------------|--------------------------|
-------------------------------------|--------------------------|
--0--0-------0--0--0--0--0--0--0--0--|--0--0--0--0--0--0--0--0--|


  PM PM PM PM PM PM PM PM                                            
  E  E  E  E  E  E  E  E     H        H           H        H         
--------------------------|--------------------|--------------------|
--------------------------|--------------------|--------------------|
--------------------------|--------------------|--------------------|
--------------------------|--------------------|--------------------|
--------------------------|--------------------|--------------------|
--0--0--0--0--0--0--0--0--|--0--------0--------|--0--------0--------|


  H        H           H        H           E  E  E  E  E  E  E  E   
--------------------|--------------------|--------------------------|
--------------------|--------------------|--------------------------|
--------------------|--------------------|--------------------------|
--------------------|--------------------|--------------------------|
--------------------|--------------------|--------------------------|
--0--------0--------|--0--------0--------|--5--5--5--5--5--5--5--5--|


  E  E  E  E  E  E  E  E     E  E  E  E  E  E  E  E   
--------------------------|--------------------------|
--------------------------|--------------------------|
--------------------------|--------------------------|
--------------------------|--------------------------|
--------------------------|--------------------------|
--5--5--5--5--5--5--5--5--|--5--5--5--5--5--5--5--5--|


                             |--3--|  |--3--|  |--3--|  |--3--|   
  E  E  E  E  E  E  E  E     E  E  E  E  E  E  E  E  E  E  E  E   
--------------------------|--------------------------------------|
--------------------------|--------------------------------------|
--------------------------|--------------------------------------|
--------------------------|--------------------------------------|
--------------------------|--------------------------------------|
--7--7--7--7--8--8--8--8--|--0--0--0--0--0--0--0--0--0--0--0--0--|


  |--3--|  |--3--|  |--3--|  |--3--|     |--3--|  |--3--|  |--3--|  |--3--|   
  E  E  E  E  E  E  E  E  E  E  E  E     E  E  E  E  E  E  E  E  E  E  E  E   
--------------------------------------|--------------------------------------|
--------------------------------------|--------------------------------------|
--------------------------------------|--------------------------------------|
--------------------------------------|--------------------------------------|
--------------------------------------|--------------------------------------|
--0--0--0--2--2--2--3--3--3--5--5--5--|--0--0--0--0--0--0--0--0--0--0--0--0--|


  |--3--|  |--3--|  |--3--|  |--3--|     |--3--|  |--3--|  |--3--|  |--3--|   
  E  E  E  E  E  E  E  E  E  E  E  E     E  E  E  E  E  E  E  E  E  E  E  E   
--------------------------------------|--------------------------------------|
--------------------------------------|--------------------------------------|
--------------------------------------|--------------------------------------|
--------------------------------------|--------------------------------------|
--------------------------------------|--------------------------------------|
--0--0--0--2--2--2--3--3--3--7--7--7--|--8--8--8--8--8--8--8--8--8--8--8--8--|


  |--3--|  |--3--|  |--3--|  |--3--|     |--3--|  |--3--|  |--3--|  |--3--|   
  E  E  E  E  E  E  E  E  E  E  E  E     E  E  E  E  E  E  E  E  E  E  E  E   
--------------------------------------|--------------------------------------|
--------------------------------------|--------------------------------------|
--------------------------------------|--------------------------------------|
--------------------------------------|--------------------------------------|
--------------------------------------|--------------------------------------|
--8--8--8--8--8--8--7--7--8--8--7--7--|--5--5--5--5--5--5--5--5--5--5--5--5--|


                      |--3--|  |--3--|  |--3--|  |--3--|   
  W                   E  E  E  E  E  E  E  E  E  E  E  E   
-------------------|--------------------------------------|
-------------------|--------------------------------------|
-------------------|--------------------------------------|
-------------------|--------------------------------------|
--3----------------|--------------------------------------|
--5----------------|--0--0--0--0--0--0--0--0--0--0--0--0--|


  |--3--|  |--3--|  |--3--|  |--3--|     |--3--|  |--3--|  |--3--|  |--3--|   
  E  E  E  E  E  E  E  E  E  E  E  E     E  E  E  E  E  E  E  E  E  E  E  E   
--------------------------------------|--------------------------------------|
--------------------------------------|--------------------------------------|
--------------------------------------|--------------------------------------|
--------------------------------------|--------------------------------------|
--------------------------------------|--------------------------------------|
--0--0--0--2--2--2--3--3--3--5--5--5--|--0--0--0--0--0--0--0--0--0--0--0--0--|


  |--3--|  |--3--|  |--3--|  |--3--|     |--3--|  |--3--|  |--3--|  |--3--|   
  E  E  E  E  E  E  E  E  E  E  E  E     E  E  E  E  E  E  E  E  E  E  E  E   
--------------------------------------|--------------------------------------|
--------------------------------------|--------------------------------------|
--------------------------------------|--------------------------------------|
--------------------------------------|--------------------------------------|
--------------------------------------|--------------------------------------|
--0--0--0--2--2--2--3--3--3--7--7--7--|--8--8--8--8--8--8--8--8--8--8--8--8--|


  |--3--|  |--3--|  |--3--|  |--3--|     |--3--|  |--3--|  |--3--|  |--3--|   
  E  E  E  E  E  E  E  E  E  E  E  E     E  E  E  E  E  E  E  E  E  E  E  E   
--------------------------------------|--------------------------------------|
--------------------------------------|--------------------------------------|
--------------------------------------|--------------------------------------|
--------------------------------------|--------------------------------------|
--------------------------------------|--------------------------------------|
--8--8--8--8--8--8--7--7--8--8--7--7--|--5--5--5--5--5--5--5--5--5--5--5--5--|


                      |--3--|  |--3--|  3             
  W                   E  E  E  E  E  E  E  Q    E  T  
-------------------|---------------------------------|
-------------------|---------------------------------|
-------------------|---------------------------------|
-------------------|---------------------------------|
--3----------------|---------------------------------|
--5----------------|--0--0--0--0--0--0--0------------|


  |--3--|  |--3--|  |----3----|       |--3--|  |--3--|  3             
  E  E  E  E  E  E  Q    Q    Q       E  E  E  E  E  E  E  Q    E  T  
-----------------------------------|---------------------------------|
-----------------------------------|---------------------------------|
-----------------------------------|---------------------------------|
-----------------------------------|---------------------------------|
-----------------------------------|---------------------------------|
--0--0--0--0--0--0--0----0----0----|--0--0--0--0--0--0--0------------|


  |--3--|  |--3--|  |----3----|       |--3--|  |--3--|  3             
  E  E  E  E  E  E  Q    Q    Q       E  E  E  E  E  E  E  Q    E  T  
-----------------------------------|---------------------------------|
-----------------------------------|---------------------------------|
-----------------------------------|---------------------------------|
-----------------------------------|---------------------------------|
-----------------------------------|---------------------------------|
--0--0--0--0--0--0--0----0----0----|--0--0--0--0--0--0--0------------|


  |--3--|  |--3--|  |----3----|         |--3--|  |--3--|  3             
  E  E  E  E  E  E  Q    Q    Q         E  E  E  E  E  E  E  Q    E  T  
-----------------------------------||----------------------------------|
-----------------------------------||----------------------------------|
-----------------------------------||*---------------------------------|
-----------------------------------||*---------------------------------|
-----------------------------------||----------------------------------|
--0--0--0--0--0--0--0----0----0----||---0--0--0--0--0--0--0------------|


  |--3--|  |--3--|  |----3----|         |--3--|  |--3--|  |--3--|  |--3--|   
  E  E  E  E  E  E  Q    Q    Q     4x  E  E  E  E  E  E  E  E  E  E  E  E   
------------------------------------||--------------------------------------|
------------------------------------||--------------------------------------|
-----------------------------------*||--------------------------------------|
-----------------------------------*||--------------------------------------|
------------------------------------||--------------------------------------|
--0--0--0--0--0--0--0----0----0-----||--0--0--0--0--0--0--0--0--0--0--0--0--|


  |--3--|  |--3--|  |--3--|  |--3--|     |--3--|  |--3--|       
  E  E  E  E  E  E  E  E  E  E  E  E     E  E  E  E  E  E  E    
--------------------------------------|-----------------------||
--------------------------------------|--------------------6--||
--------------------------------------|--------------------7--||
--------------------------------------|--------------------7--||
--------------------------------------|--------------------5--||
--0--0--0--0--0--0--0--0--0--0--0--0--|--0--0--0--0--0--0--0--||




Duration Legend
---------------
W - whole
H - half
Q - quarter
E - 8th
S - 16th
T - 32nd
X - 64th
. - note dotted
|-n-|  - n-tuplets


Tablature Legend
----------------
L - tied note
x - dead note
g - grace note
(n) - ghost note
> - accentuded note
NH - natural harmonic
AH - artificial harmonic
TH - tapped harmonic
SH - semi harmonic
PH - pitch harmonic
h - hammer on
p - pull off
b - bend
br - bendRelease
pb - preBend
pbr - preBendRelease
brb - bendReleaseBend
\n/ - tremolo bar dip
\n - tremolo bar dive
-/n - tremolo bar Release up
/n\ - tremolo bar inverted dip
/n - tremolo bar return
-\n - tremolo bar Release down
S - shift slide
s - legato slide
/ -  slide into from below or out of upwards
\ -  slide into from above or out of downwards
~ - vibrato
W - wide vibrato
tr - trill
TP - tremolo picking
T - tapping
S - slap
P - pop
< - fade in
^ - brush up
v - brush down





Comments


Popular I Killed The Prom Queen tabs & chords
Columbian Necktie Tabs
Death Certificate For A Beauty Queen Tabs
Deepest Sleep Tabs
Deepest Sleep Intro Tabs
Sharks In Your Mouth 1 Tabs
Sharks In Your Mouth 6 Tabs
Sleepless Nights And City Lights Intro Tabs
There Will Be No Violins When You Die Tabs
When Goodbye Means Forever Tabs
Your Shirt Would Look Better With A Columbian Neck-Tie 2 Tabs


Song lyrics



↑ Back to top | Tablatures and chords are parodies/interpretations of the original songs. You may use it for private study, scholarship, research or language learning purposes only
© 2014 AZChords.com Contact us | Privacy policy | DMCA | Add/correct tabs | Request tabs | Top 50 tabs