» » »

Columbian Necktie Tabs (ver.1)

Artists:  A B C D E F G H I J K L M N O P Q R S T U V W X Y Z # 

Columbian Necktie Tabs (ver.1)

I Killed The Prom Queen
Rating:
5/5 (1 vote)

Hard to play? Try these video lessons and learn fast.
                12^-12^-12^--------------------------------|
15^-15^-15^-13-12------12-12-13-15---------|
-----------------------------------12------|
-------------------------------------------|
-------------------------------------------|
-------------------------------------------|

-------------------------------------------|
--------------------------------15-----15--|
12-12-14-12-11-12-11------11-12---11-12----|
---------------------12--------------------|
-------------------------------------------|
-------------------------------------------|


-----12-----12-----12-----14-----14------14|
-------------------------------------------|
11-12--11-12--11-12--11-12--11-12--11-12---|
-------------------------------------------|
-------------------------------------------|
-------------------------------------------|


151412151412151412171514171514-191919191919|
-------------------------------------------|
-------------------------------------------|
-------------------------------------------|
-------------------------------------------|

171717171515151514141414----------17-------|
------------------------17--171920-----17--|
-------------------------------------------|
-------------------------------------------|
-------------------------------------------|
-------------------------------------------|

---------------------17*-------------------|
---17-------20^---------------------------|
-------------------------------------------|
-------------------------------------------|
-------------------------------------------|
-------------------------------------------|
            
Hard to play? Try these video lessons and learn fast. | Correct




comments powered by Disqus
↑ Back to top | Tablatures and chords are parodies/interpretations of the original songs. You may use it for private study, scholarship, research or language learning purposes only