» » »

Ikara Colt, Wake In The City Bass tabs (ver.1)

Artists:  A B C D E F G H I J K L M N O P Q R S T U V W X Y Z # 

Wake In The City Bass tabs (ver.1)

Ikara Colt Tabs
Rating:
0/5 (0 votes)
Wake In The City lessons Tabs too difficult? Try these video lessons and learn fast
                -------------------------------------------------------------------------------
-------------------------------------------------------------------------------

Tuning: EADG

Main riff:
G|-------------------------------------------------|
D|--12---12---12---12---12-12-12-12-10----10-------|
A|-------------------------------------12----------|
E|-------------------------------------------------|

Most of the song (intro and verse) is just that first 
bit repeated over and over.

The chorus is just:

G|-------------------------------------------------|
D|-12-12-12-12-12-12-12-12-10-10-10-10-10-10-10-10-|
A|-------------------------------------------------|
E|-------------------------------------------------|

G|-------------------------------------------------|
D|-8--8--8--8--8--8--8--8--5--5--5--5--5--5--5--5--|
A|-------------------------------------------------|
E|-------------------------------------------------|

(Or you can play the second half as a bar of 13 then a 
bar of 10, both on the A string, whichever you prefer)

The only other part is almost exactly the same as the 
main riff, just one added note at the end. This comes 
in towards the end of the song and goes like this:

G|-------------------------------------------------|
D|--12---12---12---12---12-12-12-12-10----10-------|
A|-------------------------------------12----------|
E|-------------------------------------------10----|

Just repeat that through the section before the last 
chorus, then back to the main riff. At the end the 
12s at the start of the main riff are all played 
quickly (like in the chorus) rather than the 4 slower
ones and then speeding it up


| /  slide up
| \  slide down
| h  hammer-on
| p  pull-off
| ~  vibrato
| +  harmonic
| x  Mute note
===============================================================================
            

comments powered by Disqus
↑ Back to top | Ikara Colt Bass for Wake In The City. Lyrics for acoustic guitar and electric guitar. Tablatures and chords are parodies/interpretations of the original songs. You may use it for private study, scholarship, research or language learning purposes only