» » »

Modern Feeling Bass tabs (ver.1)

Artists:  A B C D E F G H I J K L M N O P Q R S T U V W X Y Z # 

Modern Feeling Bass tabs (ver.1)

Ikara Colt
Rating:
0/5 (0 votes)

Hard to play? Try these video lessons and learn fast.
                
Band  - Ikara Colt
Song  - Modern Feeling
Album - Modern Apprentice

[INTRO]

fingers on root + octave and slide up and down.
Never pluck the C. It just slide /8\3 then pluck the 3rd

G[----------------------------------------------------]
D[-----7-----7-----7-----7-----7-----7/10-10\5---5/---]
A[----------------------------------------------------]
E[--5--5--5--5--5--5--5--5--5--5--5--5/8----\3-3--/---] x3

G[----------------------------------------------------]
D[-----7-----7-----7-----7-----7-----7----------------]
A[----------------------------------------------------]
E[--5--5--5--5--5--5--5--5--5--5--5--5/8\3-3----] x1

[RIFF A]

G[----------------------------------------------------]
D[----------------------------------------------------]
A[----------------------------------------------------]
E[--5--5--5--5--5--5--5--5--5--5--5--5/--8--\3-3------] x4

[RIFF B]

G[--------------------------------------------------------]
D[--------------------------------------------------------]
A[-------------------------------------8------------------]
E[-10-10-10-10-10-10-10-10-10-10-10-10--10-10-10-10-10-10-]

G[--------------------------------------------------------]
D[--------------------------------------------------------]
A[--------------------------------------------------------]
E[--10-10-10-10-10-10-10-10-10-10-10-10-10-10---8---8-----] x1

then

RIFF A x4
RIFF B x1
INTRO X1
RIFF A x4
RIFF B x1
RIFF A x8
RIFF B x1
RIFF A x4
End on A
            
Hard to play? Try these video lessons and learn fast. | Correct




comments powered by Disqus
↑ Back to top | Tablatures and chords are parodies/interpretations of the original songs. You may use it for private study, scholarship, research or language learning purposes only