» » »

Ikara Colt, Don They Know Tabs (ver.1)

Artists:  A B C D E F G H I J K L M N O P Q R S T U V W X Y Z # 

Don They Know Tabs (ver.1)

Ikara Colt Tabs
 Rating:
4/5 (4 votes)
Don	 They Know lessons Tabs too difficult? Try these video lessons and learn fast
                track 3 from the basic instructions EP
standard tuning EADGBE


intro:

e:----------------------------------------------------------------
B:----------------------------------------------------------------
G:----------------------------------------------------------------
D:-5-5-5-5-5-5-5-5-5-5-5-5-5-5-5-5-2-2-2-2-2-2-2-2-2-2-2-2-2-2-2-2
A:-5-5-5-5-5-5-5-5-5-5-5-5-5-5-5-5-2-2-2-2-2-2-2-2-2-2-2-2-2-2-2-2
E:-3-3-3-3-3-3-3-3-3-3-3-3-3-3-3-3-0-0-0-0-0-0-0-0-0-0-0-0-0-0-0-0

 |-------------------------palm----muted-------------------------|

chorus:

e:--------------------------------------------------------------------------------
B:--------------------------------------------------------------------------------
G:--------------------------------------------------------------------------------
D:-7-7-7-7-7-7-7-7-7-7-7-7-5-2-2-2-2-2-2-2-2-2-2-2-2-2-2-5-7-7-7-7-7-7-7-7-7-7-7-5
A:-7-7-7-7-7-7-7-7-7-7-7-7-5-2-2-2-2-2-2-2-2-2-2-2-2-2-2-5-7-7-7-7-7-7-7-7-7-7-7-5
E:-5-5-5-5-5-5-5-5-5-5-5-5-3-0-0-0-0-0-0-0-0-0-0-0-0-0-0-3-5-5-5-5-5-5-5-5-5-5-5-3

e:------------------------------------------------------------------------------
B:------------------------------------------------------------------------------
G:------------------------------------------------------------------------------
D:-2-2-2-2-2-2-2-2-2-2-2-2-5-7-7-7-7-7-7-7-7-7-9-9-5-5-5-5-5-5-5-5-5-5-7-7-7-7-7
A:-2-2-2-2-2-2-2-2-2-2-2-2-5-7-7-7-7-7-7-7-7-7-9-9-5-5-5-5-5-5-5-5-5-5-7-7-7-7-7
E:-0-0-0-0-0-0-0-0-0-0-0-0-3-5-5-5-5-5-5-5-5-5-7-7-3-3-3-3-3-3-3-3-3-3-5-5-5-5-5

e:------------------------------------
B:------------------------------------
G:------------------------------------
D:-7-7-7-5-2-2-2-2-2-2-2-2-2-2-2-2-2-2
A:-7-7-7-5-2-2-2-2-2-2-2-2-2-2-2-2-2-2
E:-5-5-5-3-0-0-0-0-0-0-0-0-0-0-0-0-0-0


Towards the end of the song there is a lot of feedback noise.
I haven’t worked out the solo yet.
            
Submit corrections

comments powered by Disqus
↑ Back to top | Ikara Colt Tabs for Don They Know. Lyrics for acoustic guitar and electric guitar. Tablatures and chords are parodies/interpretations of the original songs. You may use it for private study, scholarship, research or language learning purposes only