» » »

I Hate Kate, Race To Red Tabs (ver.1)

Artists:  A B C D E F G H I J K L M N O P Q R S T U V W X Y Z # 

Race To Red Tabs (ver.1)

I Hate Kate Tabs
 Rating:
4/5 (4 votes)
Race To Red lessons Tabs too difficult? Try these video lessons and learn fast
                -------------------------------------------------------------------------------
                             RACE TO RED - Darling Thieves
-------------------------------------------------------------------------------

Tuning: Standard

Intro
e|---------------------------------------------------------------------------|
B|-8-10-11-11-11-10-8-8-8~-8-10-11-11-11-10-6~-8-10-11-11-11-10-8-8-8~-8-8---|
G|---------------------------------------------------------------------------|
D|---------------------------------------------------------------------------|
A|---------------------------------------------------------------------------|
E|---------------------------------------------------------------------------|

e|----------------------------------------------8-8-8------------------------|
B|-10-10-10-8-7~-8-10-11-11-11-10-8-8-8~-10-11-------11-10~-8-10-11-11-11-10-|
G|---------------------------------------------------------------------------|
D|---------------------------------------------------------------------------|
A|---------------------------------------------------------------------------|
E|---------------------------------------------------------------------------|

e|---------------------------------------------------------------------------|
B|-8-8-8~-8-8-10-10-10-8-7~--------------------------------------------------|
G|---------------------------------------------------------------------------|
D|---------------------------------------------------------------------------|
A|---------------------------------------------------------------------------|
E|---------------------------------------------------------------------------|

Pre-Chorus
e|---------------------------------------------------------------------------|
B|-8-8-8-8-8-88-888-8-8-8-8-8-88-888-8-8-8-8-8-88-888------------------------|
G|---------------------------------------------------------------------------|
D|---------------------------------------------------------------------------|
A|---------------------------------------------------------------------------|
E|---------------------------------------------------------------------------|
One two three then it's time to go...

e|---------------------------------------------------------------------------|
B|---------------------------------------------------------------------------|
G|---------------------------------------------------------------------------|
D|---------------------------------------------------------------------------|
A|-11~----10~----9~----8b~---------------------------------------------------|
E|--9~-----8~----7~----6b~---------------------------------------------------|
Down Down Down Dooooown

CHORUS
e|---------------------------------------------------------------------------|
B|---------------------------------------------------------------------------|
G|-12------15------8------7--------------------------------------------------|
D|--x-(x8)--x-(x8)-x-(x8)-x-(x8)---------------------------------------------|
A|-10------13------6------5--------------------------------------------------|
E|---------------------------------------------------------------------------|


PRE-VERSE
e|---------------------------------------------------------------------------|
B|-8-10-11-11-11-10-8-8-8~-8-10-11-11-11-10-6~-8-10-11-11-11-10-8-8-8~-8-8---|
G|---------------------------------------------------------------------------|
D|---------------------------------------------------------------------------|
A|---------------------------------------------------------------------------|
E|---------------------------------------------------------------------------|

e|---------------------------------------------------------------------------|
B|-10-10-10-8-7~-------------------------------------------------------------|
G|---------------------------------------------------------------------------|
D|---------------------------------------------------------------------------|
A|---------------------------------------------------------------------------|
E|---------------------------------------------------------------------------|


BRIDGE
e|---------------------------------------------------------------------------|
B|---------------------------------------------------------------------------|
G|---------------------------------------------------------------------------|
D|--555-888-5555555555-------------------------------------------------------|
A|--555-888-5555555555-------------------------------------------------------|
E|--333-666-3333333333-------------------------------------------------------|

The rest of the song is synth and bass, including chorus, though feel free to e-mail me 
I'm wrong.


ORDER:

Intro
Pre-Chorus
Pre-Verse
Pre-Chorus
Bridge
Pre-Chorus
Bridge

************************************

| /   slide up
| \   slide down
| h   hammer-on
| p   pull-off
| ~   vibrato
| +   harmonic
| x   Mute note
| b   Bend
| pb  Pre-bend
| br  Bend release
| pbr Pre-bend release
| brb Bend release bend

************************************
            
Submit corrections

comments powered by Disqus
↑ Back to top | I Hate Kate Tabs for Race To Red. Lyrics for acoustic guitar and electric guitar. Tablatures and chords are parodies/interpretations of the original songs. You may use it for private study, scholarship, research or language learning purposes only