>
 >
Major Tom

Major Tom Guitar Tabs

I Hate Kate - Major Tom chords, tabs, tablatures, lyrics

Guitar lessons | Add/correct | Request | Top 50 tabs Artists:  A B C D E F G H I J K L M N O P Q R S T U V W X Y Z 0-9

Major Tom Guitar Tabs – I Hate Kate

CD, Sheet music, Poster

Do you like Major Tom? Share with your friends now
Tabs
 ______________________________________________________________________
|                                                                      |
|   ~ = let ring                                                       |
|   \ = slide down                                                     |
|   / = slide up                                                       |
|   h = hammer on                                                      |
|   p = pull off                                                       |
|   . = palm mute                                                      |
|(x1) = how many times you hit the note (no change in rhythm)          |
|  x1 = how many times you hit the set                                 |
|  1> = listen to song and hit as long as needed (may change in rhythm)|
|                                                                      |
|______________________________________________________________________|

intro\verse 1

 |---------| |---------------------------------|  |-----------|
 |---------| |---------------------------------|  |-----------|
 |---------| |---------------------------------|x4|-----------|
 |---------| |---------------------------------|  |-7-------2~|
 |---------| |---7-5-7-----5-7---7-5-7---5---5-|  |-7-(x16)-2~|
 |-12(x80)-| |-0-------5-7-----0-------3---2---|  |-5-------0~|
    .                                                  

 |-------------------------------------------------------|
 |-------------------------------------------------------|
 |-------------------------------------------------------|
 |--------------7-7------------------7-7-----5-----2-----|
 |-2------7-----5-5(x8)--2------7----5-5(x8)-3(x8)-0(x8)-|
 |-0(x48)-5(x7)----------0(x16)-5(x7)--------------------|
   .      .       .      .      .      .     .     .        

 |-------------------------------------------------------------|
 |-------------------------------------------------------------|
 |-------------------------------------------------------------|
 |-------------7-7------------------7-7-----5-----2------------|
 |-2------7----5-5(x8)-2------7-----5-5(x8)-3(x8)-0(x8)-2------|
 |-0(x32)-5(x7)--------0(x16)-5(x7)---------------------0(x16)-|
   .      .      .     .      .       .     .     .     .

 |--------|
 |--------|
 |-4------|
 |-x(x16)-|
 |-2------|
 |--------|

 chorus 1

 |-------------|  |---------------------------------|
 |-------------|  |---------------------------------|
 |----7-----5--|x2|---------------------------------|x2
 |-5--7--7--5--|  |---------------------------------|
 |-5--5>-7--3>-|  |---7-5-7-----5-7---7-5-7---5---5-|
 |-3>----5>----|  |-0-------5-7-----0-------3---2---|


 verse 2

 |-------------------------------------------------------|
 |-------------------------------------------------------|
 |-------------------------------------------------------|
 |--------------7-7------------------7-7-----5-----2-----|
 |-2------7-----5-5(x8)--2------7----5-5(x8)-3(x8)-0(x8)-|
 |-0(x48)-5(x7)----------0(x16)-5(x7)--------------------|
   .      .       .      .      .      .     .     .        

 |-------------------------------------------------------------|
 |-------------------------------------------------------------|
 |-------------------------------------------------------------|
 |-------------7-7------------------7-7-----5-----2------------|
 |-2------7----5-5(x8)-2------7-----5-5(x8)-3(x8)-0(x8)-2------|
 |-0(x32)-5(x7)--------0(x16)-5(x7)---------------------0(x16)-|
   .      .      .     .      .       .     .     .     .

 |--------|
 |--------|
 |-4------|
 |-x(x16)-|
 |-2------|
 |--------|

 chorus 2
 |-------------|  |---|
 |-------------|  |---|
 |-------------|  |-9~|
 |----7-----5--|x4|-x~|
 |-5--5>-7--3>-|  |-7~|
 |-3>----5>----|  |---|

 keyboardish solo
 come in with the whistle thingy
 |--------------------------------------------------------------|
 |--------------------------------------------------------------|
 |--------------------------------------------------------------|
 |-----------------------------------7-7-----5-----2------------|
 |-2------7-----5-5(x8)-2------7-----5-5(x8)-3(x8)-0(x8)-2------|
 |-0(x16)-5(x7)---------0(x16)-5(x7)---------------------0(x16)-|
   .      .       .     .      .       .     .     .     .

 |--------|
 |--------|
 |-4------|
 |-x(x32)-|
 |-2------|
 |--------|

 chorus 3
 |-------------|   |---------------------------------|  |---|
 |-------------|   |---------------------------------|  |---|
 |-------------|   |---------------------------------|  |---|
 |----7-----5--|x64|---------------------------------|x4|---|
 |-5--5>-7--3>-|   |---7-5-7-----5-7---7-5-7---5---5-|  |-2-|
 |-3>----5>----|   |-0-------5-7-----0-------3---2---|  |-0-|





Comments


Popular I Hate Kate tabs & chords
Always Something Bass Tabs
Always Something Intro Tabs
Bed Of Black Roses Tabs
Free Without You Tabs
I'm In Love With A Sociopath Tabs
I'm In Love With A Sociopath 1 Tabs
Its Always Better Tabs
Its Always Better 1 Tabs
Race To Red Tabs
Something Better Intro Tabs


Song lyrics



↑ Back to top | Tablatures and chords are parodies/interpretations of the original songs. You may use it for private study, scholarship, research or language learning purposes only
© 2014 AZChords.com Contact us | Privacy policy | DMCA | Add/correct tabs | Request tabs | Top 50 tabs