» » »

I Hate Kate, I'm In Love With A Sociopath Tabs (ver.1)

Artists:  A B C D E F G H I J K L M N O P Q R S T U V W X Y Z # 

I'm In Love With A Sociopath Tabs (ver.1)

I Hate Kate Tabs
 Rating:
3/5 (6 votes)
I'm In Love With A Sociopath lessons Tabs too difficult? Try these video lessons and learn fast
                Tuning: Standard, but it could be played with Drop D

The riff to this song sounds like ‘House of Wolves” by My Chemical Romance and the solo 
like the one from “Holiday” by Green Day, No?

Intro, Chorus
|---------------------------------------------------------|
|---------------------------------------------------------|
|---7-7-7-9-x-11-x-9---------However-many-times-as--------|
|---x-x-x-x-x-x--x-x---------------nessecary--------------|
|---5-5-5-7-x-9--x-7--------------------------------------|
|---------------------------------------------------------|

Pre-Verse
|---------------------------------------------------------|
|---------------------------------------------------------|
|---99991199----------------------------------------------|
|---xxxxx-xx----------------------------------------------|
|---77779-77----------------------------------------------|
|---------------------------------------------------------|

Verse 1 & 2
|---------------------------------------------------------|
|---------------------------------------------------------|
|---------------------------------------------------------|
|--its-just-rythym-till-----------------------------------|
|----the-piano-part---------7-6-5-3-----------------------|
|------i-play-it-like-this:-------------------------------|

Pre-Chorus
|---------------------------------------------------------|
|---------------------------------------------------------|
|----------------------------x-9-11-x-9-11-x-9999---------|
|----------------------------x-x-x--x-x-x--x-xxxx---------|
|----5-5-5---7-7-7---9-9-9---x-7-9--x-7-9--x-7777---------|
|---------------------------------------------------------|
PM   . . .   . . .   . . .
        “Uh-Oh Here They Come...” “Better Run...”

I don’t Know the first part of the solo or the bridge, but I know the latter half (I’m 
sure on it cuz my amp doesn’t have the right sound to be able to do it):

Solo Pt. 2:
|---------------------------------------------------------|
|---------------------------------------------------------|
|-10b12-8/6/5-x-x-10b12 8/6/5-----------------------------|
|---------------------------------------------------------|
|---------------------------------------------------------|
|---------------------------------------------------------|

Order:
Intro
Pre-Verse
Verse 1 x2
Pre-Chorus
Chorus
Intro
Verse 2 x2
Pre-Chorus
Chorus
Solo Pt. 2 x 2
Bridge
Chorus

Lyrics:
Ooh-Ooh

Verse 1:
The came a little miss new in town
She said, “I need someone to show me around”
I said, “What the hell?”
She look to me said, “As far as I can tell...”

She said, “I’m Alone and...
“Come up into my room and ...
“I’ll Show you pictures of me
in my favorite (dress, bed, bell?)”

Pre-Chorus:
She said, “Uh-Oh Uh-Oh
Here they come
Uh-Oh Uh-Oh
Here they come
Uh-Oh Uh-Oh
Here they come
Better Run!
Better Run!
Better Run!

Chorus:
I’m in love with a sociopath
I’m in love with a sociopath
I’m in love with a sociopath
She makes me happy

Verse 2:
It’s another day, another cut
She said, “Kiss me fool I’m not a sl*t!
“If the eye’s in the window steal your soul,
“They’ll show somewhere in Mexico and...”

Soak down shut off the power
‘cause this taste is getting sour
I feel a sickness coming over me

Pre-Chorus, Chorus x2, Solo

Bridge
Crazy in the head,
Crazy in the bed,
In know it’s not a lie!

Crazy in the head,
Crazy in the bed,
I’ve gotta make her mine!

Chorus x2
            
Submit corrections

comments powered by Disqus
↑ Back to top | I Hate Kate Tabs for I'm In Love With A Sociopath. Lyrics for acoustic guitar and electric guitar. Tablatures and chords are parodies/interpretations of the original songs. You may use it for private study, scholarship, research or language learning purposes only