>
 >
Free Without You

Free Without You Guitar Tabs

I Hate Kate - Free Without You chords, tabs, tablatures, lyrics

Guitar lessons | Add/correct | Request | Top 50 tabs Artists:  A B C D E F G H I J K L M N O P Q R S T U V W X Y Z 0-9

Free Without You Guitar Tabs – I Hate Kate

CD, Sheet music, Poster

Do you like Free Without You? Share with your friends now
Tabs
I haven't found this tab yet, and I haven't tabbed many, so here it goes.

h= hammer
pm= palm mute

Intro Part 1 (x2)

e-------------------------------------------|
b-------------------------------------------|
g-------------------777-777-7-77-777--------|
d-777-777-7-77-777--777-777-7-77-777--------|
a-777-777-7-77-777--555-555-5-55-555--------|
E-555-555-5-55-555--------------------------|

Intro Part 2

Guitar 1

e----0----3---35-1-010h----------|
b--------------------------------|
g-2---2-4--4-5-------------------|
d--------------------------------|
a--------------------------------|
E--------------------------------|

Guitar 2

e---------------------------------------|
b---------------------------------------|
g---------------------------------------|
d-7777777777777777---9999999999999999---|
a-7777777777777777---9999999999999999---|
E-5555555555555555---7777777777777777---|

e-------------------------------------------|
b-------------------------------------------|
g-5555555555555555--------------------------|
d-5555555555555555-777777777777|7777-pm-----|
a-3333333333333333-777777777777|7777-pm-----|
E------------------555555555555|5555-pm-----|

Verse(x2)
e-----------------------------------|
b-----------------------------------|
g-----------------------------------|
d-777-777-77-7-77--999-999-99-9-99--|
a-777-777-77-7-77--999-999-99-9-99--|
E-555-555-55-5-55--777-777-77-7-77--|

e-----------------------------------|
b-----------------------------------|
g-----------------------------------|
d-1010-7--7777-77-77-7-77-7------7--|
a-1010-7--7777-77-77-7-77-7------7--|
E-8-8--5--5555-55-55-5-55-5------5--|

Chorus

e-----------------------------------|
b-----------------------------------|
g-----------------------------------|
d-77777777777777777777777777777777--|
a-77777777777777777777777777777777--|
E-55555555555555555555555555555555--|

e-------------------------------------------------------|
b-------------------------------------------------------|
g-10101010101010101010101010101010----------------------|
d-10101010101010101010101010101010-7777777777777777-----|
a-8 8 8 8 8 8 8 8 8 8 8 8 8 8 8 8--7777777777777777-----|
E----------------------------------5555555555555555-----|

Chorus Part 2 (....And it's times like these....)

e-----------------------------------------------------|
b-----------------------------------------------------|
g-10101010101010101010101010101010--------------------|
d-10101010101010101010101010101010-777777777777777----|
a-8 8 8 8 8 8 8 8 8 8 8 8 8 8 8 8--7777777777777777---|
E----------------------------------5555555555555555---|

e------------------------------------|
b------------------------------------|
g-9999999999999999-------------------|
d-9999999999999999-7777777777777777--|
a-7777777777777777-7777777777777777--|
E------------------5555555555555555--|

Bridge (...This is the end of the hypocrisy...)

e----------------------------------------------|
b----------------------------------------------|
g----------------------------------------------|
d-77777777----77777777(x2)-10101010-12121212---|
a-77777777----77777777---|-10101010-12121212---|
E-55555555-65-55555555-65|-8-8-8-8--10101010---|Play that a few times

Solo

Guitar 1

e----------------55-h7h5h7h5--10109-7h9-5------------|
b-------3-22-0---------------------------------------|
g-2---2----------------------------------------------|
d----------------------------------------------------|
a----------------------------------------------------|
E----------------------------------------------------|

Guitar 2 Plays an A throughout the solo

e---
b---
g---
d-7-
a-7-
E-5-

Outro is the same as the bridge. Enjoy.

Intro Part 1
Intro Part 2
Verse
Chorus
Intro Part 2
Chorus
Chorus Part 2
Bridge
Solo
Chorus Part 2
Chorus
Chorus Part 2
Outro





Comments


Popular I Hate Kate tabs & chords
Always Something Bass Tabs
Always Something Intro Tabs
Bed Of Black Roses Tabs
I'm In Love With A Sociopath Tabs
I'm In Love With A Sociopath 1 Tabs
Its Always Better Tabs
Its Always Better 1 Tabs
Major Tom Tabs
Race To Red Tabs
Something Better Intro Tabs


Song lyrics



↑ Back to top | Tablatures and chords are parodies/interpretations of the original songs. You may use it for private study, scholarship, research or language learning purposes only
© 2014 AZChords.com Contact us | Privacy policy | DMCA | Add/correct tabs | Request tabs | Top 50 tabs