» » »

Igor Presnyakov, Telephone Tabs (ver.1)

Artists:  A B C D E F G H I J K L M N O P Q R S T U V W X Y Z # 

Telephone Tabs (ver.1)

Igor Presnyakov Tabs
Rating:
5/5 (1 vote)
Telephone lessons Tabs too difficult? Try these video lessons and learn fast
                (Intro)
Capo on 1st.
I tried to follow the video as best as I could.

|7-----------------------------12-10-9~--------------------12*--|
|-----10---------------3---------------10------7-8---------12*--|
|----------13---12-10----0----------------9--------------0-12*--|
|---9----9----9------------0----------------0----------9---12*--|
|7---------------------------0-------0---------------7-----0----|
|----------------------3---------------------------0-------0----|

Hello hello hello...

|0-0-x4-0-0-x4-0-0-x4-0-0-x4-|
|0-0-x4-0-0-x4-0-0-x4-0-0-x4-|
|----------------------------|
|-------0--------------------|  x2
|--------------0-------------|
|0~-------------------0------|

I'm kinda' busy...
{Play your left hand tapping the notes and your right hand knocking on beat)

|------------------------------------------|
|------------------------------------------|
|--9--9-x4---------------------------------|
|------------------------------------------|
|7--7---x4---5--5-x4----7--7-x4----2--2-x4-|
|----------3--3---x4--5--5---x4--0--0---x4-|
            
Submit corrections

comments powered by Disqus
↑ Back to top | Igor Presnyakov Tabs for Telephone. Lyrics for acoustic guitar and electric guitar. Tablatures and chords are parodies/interpretations of the original songs. You may use it for private study, scholarship, research or language learning purposes only