>
 >
Sweet Child O Mine

Sweet Child O Mine Guitar Tabs

Igor Presnyakov - Sweet Child O Mine chords, tabs, tablatures, lyrics

Guitar lessons | Add/correct | Request | Top 50 tabs Artists:  A B C D E F G H I J K L M N O P Q R S T U V W X Y Z 0-9

Sweet Child O Mine Guitar Tabs – Igor Presnyakov

CD, Sheet music, Poster

Do you like Sweet Child O Mine? Share with your friends now
Tabs
Igor Presnyakov - Sweet Child O' Mine


Tune: D

  p = pull off
  / = slide up
  x = Mute note
  ~ = vibrato
  b = Bend
  r = Bend release


Intro:


     d)------------------------15--------14-----------|
     A)---------15------------------------------------|
     F)--------------14---12--------14--------14------|  X 2
     C)----12-----------------------------------------|
     G)-----------------------------------------------|
     D)-----------------------------------------------|


     d)------------------------15--------14-----------|
     A)---------15------------------------------------|
     F)--------------14---12--------14--------14------|  X 2
     C)----14-----------------------------------------|
     G)-----------------------------------------------|
     D)-----------------------------------------------|


     d)------------------------15--------14-----------|
     A)---------15------------------------------------|
     F)----12--------14---12--------14--------14------|  X 2
     C)-----------------------------------------------|
     G)-----------------------------------------------|
     D)-----------------------------------------------|


     d)------------------------15--------14-----------|
     A)---------15------------------------------------|
     F)--------------14---12--------14--------14------|  X 2
     C)----12-----------------------------------------|
     G)-----------------------------------------------|
     D)-----------------------------------------------|


     d)--------------------3-------2------------------|
     A)--------3-----------------------3--------------|
     F)------------2---0-------0----------------------|  X 2
     C)----0------------------------------------------|
     G)-----------------------------------------------|
     D)-----------------------------------------------|


     d)--------------------3-------2------------------|
     A)--------3-----------------------3--------------|
     F)------------2---0-------0----------------------|  X 2
     C)-----------------------------------------------|
     G)----3------------------------------------------|
     D)-----------------------------------------------|


     d)--------------------3-------2------------------|
     A)--------3-----------------------3--------------|
     F)------------2---0-------0----------------------|  X 2
     C)-----------------------------------------------|
     G)-----------------------------------------------|
     D)----3------------------------------------------|


     d)--------------------3-------2------------------|
     A)--------3-----------------------3--------------|
     F)------------2---0-------0----------------------|
     C)----0------------------------------------------|
     G)-----------------------------------------------|
     D)-----------------------------------------------|


     d)--------------------3-------2------------------|
     A)--------3---------------3---3------------------|
     F)------------2---0-----------2------------------|
     C)----0---------------0-------0------------------|
     G)-----------------------------------------------|
     D)-----------------------------------------------|


Verse:


     d)----5---5-5---3\2---3---5-----------------------------|
     A)----------------------------5~-3----------------------|
     F)------------------------------------------------------|
     C)----0---------0-------------0-------------------------|
     G)------------------------------------------------------|
     D)------------------------------------------------------|


     d)----3--2------3--2--------3--2--2p0-------------------|
     A)----3-----3---3-----3-----3----------3----------------|
     F)-----------------------0------------------------------|
     C)------------------------------------------------------|
     G)----3---------3-----------3---------------------------|
     D)------------------------------------------------------|


     d)-------3--3--3-----3-----3--3-----3/5-----------------|
     A)-------3--3--3-----3-----3--3-----3-------------------|
     F)----0-------------------------------------------------|
     C)------------------------------------------------------|
     G)------------------------------------------------------|
     D)-------3--------3-----3--------3----------------------|


     d)----3--2-----3----2-----------------------------------|
     A)----3-----3--3-------3--3-----------------------------|
     F)---------------------2--2-----------------------------|
     C)----0--------0----------------------------------------|
     G)---------------------------3/5--5--5--5--5--5---------|
     D)------------------------------------------------------|


     d)----5---5-5---3\2---3---5-----------------------------|
     A)----------------------------5~-3----------------------|
     F)------------------------------------------------------|
     C)----0---------0-------------0-------------------------|
     G)------------------------------------------------------|
     D)------------------------------------------------------|


     d)----3--2------3--2------------------------------------|
     A)----3-----3---3-----3---------------------------------|
     F)----------------------------------0-------------------|
     C)-------------------------------4-----4----------------|
     G)----3---------3--------3----------------5-------------|
     D)--------------------------(3)-------------------------|


     d)----3--3-3-----3-----3--3-----3/5---------------------|
     A)----3--3-3-----3-----3--3-----3-----------------------|
     F)------------------------------------------------------|
     C)------------------------------------------------------|
     G)------------------------------------------------------|
     D)----3-------3-----3--------3--------------------------|


     d)----3--2-----3----2-----------------------------------|
     A)----3-----3--3-------3--3-----------------------------|
     F)---------------------2--2-----------------------------|
     C)----0--------0----------------------------------------|
     G)---------------------------3/5--5--5------------------|
     D)------------------------------------------------------|


chorus:


     d)----5---5---5h7---5---3--------3----------------------|
     A)----5---5---5-----5---3-----5-------------------------|
     F)----6---6---6-----6---4-------------------------------|
     C)--------7---------7---5--5--5-------------------------|
     G)----0-------------------------------------------------|
     D)------------------------------------------------------|


     d)--------------------3-------2-------------------------|
     A)--------3-----------------------3---------------------|
     F)------------2---0-------0-----------------------------|
     C)----0-------------------------------------------------|
     G)------------------------------------------------------|
     D)------------------------------------------------------|


     d)----------------3---3---2-----------------------------|
     A)--------3-------3---3---3-----------------------------|
     F)------------2-----------2-----------------------------|
     C)----0-------------------0-----------------------------|
     G)------------------------------------------------------|
     D)------------------------------------------------------|


     d)----5---5h7---5---5---3------------2--2----------------|
     A)----5---5-----5---5---3---5--5--3--3--3----------------|
     F)----6---6-----6---6---4---------2----------------------|
     C)--------7---------7---5---5-----0----------------------|
     G)----0------------------------------------0-3/5-5-5-5-5-|
     D)-------------------------------------------------------|


     d)----5---5\3---2---2--2/5---3---2---3/5--3-0--3/5--3---|
     A)----7---7\5---3---3--3/7---5---3--------3---------3---|
     F)------------------------------------------------------|
     C)----0---0------------0-----0---0----------------------|
     G)----------------------------------------3---------3---|
     D)------------------------------------------------------|


     d)----3/5---3-----3--3-----------------------10--12--10-|
     A)-------------3--3--3---10b11r10--8--10/12-------------|
     F)----------------0--0----------------------------------|
     C)----------------0--0----------------------------------|
     G)----------------2--2----------------------------------|
     D)----------3-----3--3----------------------------------|


     d)------------------------------------------------------|
     A)----6/7-----------8--8--8--7--7-----------------------|
     F)----6/7---7-------7--7--7--7--7-----------------------|
     C)----0-------------0--------0--------------------------|
     G)--------------0---------------------------------------|
     D)------------------------------------------------------|


     d)----3/5---5---5---3---2---3---5-----------------------|
     A)----5/7---7---7---5---3---5---7---5b6r5---3-----------|
     F)------------------------------------------------------|
     C)----0---------------------0-------0-------------------|
     G)------------------------------------------------------|
     D)------------------------------------------------------|


     d)----3---3---/5---3---0-------/5---3---3---3---3-------|
     A)----3---3--------3-------3--------3---3---3---3-------|
     F)------------------------------------------------------|
     C)------------------------------------------------------|
     G)----3------------3------------------------------------|
     D)----------------------------------3-------3-----------|


     d)----3--3--3--3---3--2-----3--2------------------------|
     A)----3--3--3--3---3-----3--3-----3--3------------------|
     F)--------------------------------2--2------------------|
     C)-----------------0--------0---------------------------|
     G)--------------------------------------3/5--5--5--5--5-|
     D)----3--------3----------------------------------------|


Verse:


     d)----5---5-5---3\2---3---5---2----3---2---2---5---2----|
     A)---------------------------------3-------3------------|
     F)------------------------------------------------------|
     C)----0---------0-------------0-------------------------|
     G)---------------------------------3-------3------------|
     D)------------------------------------------------------|


     d)----3---2--------5---3---3---3------3-----3--3--3--3--|
     A)----3-------3--------3---3---3---3--------3--3--3--3--|
     F)------------------------------------------------------|
     C)------------------------------------------------------|
     G)----3-------------------------------------------------|
     D)---------------------3-------3------------3-----3-----|


     d)----3--2-----3--2-----3--2-----2--2-------------------|
     A)----3-----3--3-----3--3-----3--3--3--3----------------|
     F)----------------------------2--------2----------------|
     C)----0--------0--------0-------------------------------|
     G)------------------------------------------------------|
     D)------------------------------------------------------|


chorus:


     d)----5---5h7---5---5---3-------3-----------------------|
     A)----5---5-----5---5---3---5---------------------------|
     F)----6---6-----6---6---4-------------------------------|
     C)--------7---------7---5---5---------------------------|
     G)----0-------------------------------------------------|
     D)------------------------------------------------------|


     d)--------------------3-------2-------------------------|
     A)--------3-----------------------3---------------------|
     F)------------2---0-------0-----------------------------|
     C)----0-------------------------------------------------|
     G)------------------------------------------------------|
     D)------------------------------------------------------|


     d)----------------3---3---2-----------------------------|
     A)--------3-------3---3---3-----------------------------|
     F)------------2-----------2-----------------------------|
     C)----0-------------------0-----------------------------|
     G)------------------------------------------------------|
     D)------------------------------------------------------|


     d)----5---5h7---5---5---3-------3-----------------------|
     A)----5---5-----5---5---3---5---------------------------|
     F)----6---6-----6---6---4-------------------------------|
     C)--------7---------7---5---5---------------------------|
     G)----0-------------------------------------------------|
     D)------------------------------------------------------|


     d)------------------------15--------14-----------|
     A)---------15------------------------------------|
     F)--------------14---12--------14--------14------|  X 2
     C)----12-----------------------------------------|
     G)-----------------------------------------------|
     D)-----------------------------------------------|


     d)----5---7--/10---12---10------10---------10-----------|
     A)----5---------------------12------10/12------12--10---|
     F)----6-------------------------------------------------|
     C)----7---7--/10--------------------0-------------------|
     G)-------------------------------------------------0----|
     D)-----------------8----8---8---------------------------|


     d)------------------------------------------------------|
     A)--------10--------10--------10--------10--------------|
     F)--------11--------11--------9---------9---------------|
     C)----0---------0---------0---------0-------------------|
     G)------------------------------------------------------|
     D)------------------------------------------------------|


     d)----5----5h7---5---5----3--------2--------------------|
     A)----5----5---------5----3----5-------3/5---3----------|
     F)----6----6---------6----4-----------------------------|
     C)----7----7---------7----5------------0----------------|
     G)---------------0-------------3------------------------|
     D)------------------------------------------------------|


     d)----2--2---2--2---2--2--------------------------------|
     A)----3--3---3--3---3--3--------------------------------|
     F)----2--2---2--2---2--2--------------------------------|
     C)----0--0---0--0---0--0--------------------------------|
     G)------------------------------------------------------|
     D)------------------------------------------------------|


Solo:


     d)----5/7---7---5---3---2h3p2---0----3/5---3---2--2-----|
     A)----0-----------------------------------------------4-|
     F)------------------------------------------------------|
     C)------------------------------------------------------|
     G)----------------------3-------3--------------2--------|
     D)----0-------------------------------------------------|


     d)----5---3---2h3p0---0-----------0---------------0-----|
     A)------------------------0---1----------------0--------|
     F)------------------------------------------0-----------|
     C)---------------------------------------2--------------|
     G)----0-------------------------------2-----------------|
     D)--------------------------------0---------------------|


     d)----3---2---0---3/5---3---2--2-------2p0------2p0-----|
     A)--------3------------------------4--------5--------5--|
     F)--------0---------------------------------------------|
     C)------------------------------------------------------|
     G)--------3-----------------2----------0----------------|
     D)------------------------------------------------------|


     d)----2p0------2----3---2---0---3---2---0---0-----------|
     A)---------5------------3-----------3-----------4---4---|
     F)------------------------------------------------------|
     C)------------------------------------------------------|
     G)----------------------3-----------3-----------2-------|
     D)------------------------------------------------------|


     d)---------------------------14b15r14---12---14/15---14-|
     A)----8--8---7--7---5--5--------------------------------|
     F)------------------------------------------------------|
     C)------------------------------------------------------|
     G)------------------------------------------------------|
     D)----5-------------5--------------0-----------------8--|


     d)----12--12---11--------------5--5-5-------5--5-5------|
     A)-----------------------------5--5-5-------5--5-5------|
     F)-----------------------------6--6-6-------6--6-6------|
     C)-----------------------------7--7-7---X---7--7-7---X--|
     G)-----------------------------7--7-7---X---7--7-7---X--|
     D)----8--------7---7---7-------5--5-5---X---5--5-5---X--|


End:

                                                                   _
                                                                    \
                                                                     \_
                                                                       0
     d)----3----------------------3--------------------------          |
     A)----3---5---3h5------------3---5---3h5----------------          |
     F)------------------------------------------------------          |
     C)------------------x-x-x------------------x-x-x--------          |
     G)------------------x-x-x------------------x-x-x--------           \
     D)----0-------------x-x-x----3-------------x-x-x--------            \
                                                                          >  X 2
                                                                         /
     d)----3---2---3-----------------------------------------           /
     A)----3---3---3-----------------------------------------          |
     F)--------------------------5--5----7--7----------------          |
     C)-----------------x-x-x----5--5----7--7----------------          |
     G)----0-------0----x-x-x----3--3----5--5----------------          |
     D)-----------------x-x-x--------------------------------         _0
                                                                     /
                                                                   _/


     d)-------------------------0----------------------------|
     A)-----------------------------3---0--------------------|
     F)----------------0h2p0----------------0h2---0----------|
     C)------------2-----------------------------------------|
     G)--------2---------------------------------------------|
     D)----0--------------------3-----------3----------------|


     d)----0-------------------------------------------------|
     A)--------3---0-----------------------------------------|
     F)----------------0h2---0----5--5----7--7---------------|
     C)---------------------------5--5----7--7---------------|
     G)----0-----------0----------3--3----5--5---------------|
     D)------------------------------------------------------|


     d)----0-----------------------0-------------------------|
     A)--------3---0-------------------3---0-----------------|
     F)----------------0h2---0----------------0h2---0--------|
     C)------------------------------------------------------|
     G)------------------------------------------------------|
     D)----0-----------0-----------3-----------3-------------|


     d)----0-------------------------------------------------|
     A)--------3---0---0---0---------------------------------|
     F)----------------2---2------5--5----7--7---------------|
     C)---------------------------5--5----7--7---------------|
     G)----0-----------0----------3--3----5--5---------------|
     D)------------------------------------------------------|


     d)----0------0------0------0---0-------0---0------|
     A)----0------0------0------0---0-------0---0------|
     F)----0------4------6------9---9-------11--11-----|   X 3
     C)----2------5------7------10--10------12--12-----|
     G)----2------5------7------10--10------12--12-----|
     D)----0------3------5------8---8-------10--10-----|


     d)----0-----0-----0--------------------------------0---|
     A)----0-----0-----0--------------------------------0---|
     F)----0-----4-----6-----9---7----------------------0---|
     C)----2-----5-----7-----9---7---9---8---7---5------2---|
     G)----2-----5-----7-----7---5---9---8---7---5------2---|
     D)----0-----3-----5-------------7---6---5---3------0---|


                                              HAREL.R





Comments


Popular Igor Presnyakov tabs & chords
Beat It Tabs
Beat It 2 Tabs
Beat It Intro Tabs
Hallelujah Tabs
Listen To Your Heart Tabs
Listen To Your Heart 2 Tabs
Mamma Mia Tabs
Nothing Else Matters Intro Tabs
Snow Hey Oh Intro Tabs
Telephone Intro Tabs


Song lyrics



↑ Back to top | Tablatures and chords are parodies/interpretations of the original songs. You may use it for private study, scholarship, research or language learning purposes only
© 2014 AZChords.com Contact us | Privacy policy | DMCA | Add/correct tabs | Request tabs | Top 50 tabs