» » »

Snow Hey Oh Tabs (ver.1)

Artists:  A B C D E F G H I J K L M N O P Q R S T U V W X Y Z # 

Snow Hey Oh Tabs (ver.1)

Igor Presnyakov
Rating:
0/5 (0 votes)

Hard to play? Try these video lessons and learn fast.
                (Intro)
Tab for Igor Presnyakov's version of Snow Hey Oh (part 1: first minute)
This is not 100% accurate.

h= hammer on 
p= pull off
pc= percussion on lower side of the guitar
per= percussion on strings

Tuning: DGCFAD

--------------------|--------------------|--------------------|
-----1---1-h3p3---1-|-----1---1-h3p3---1-|--------------------|
---2---2--------2---|---2---2--------2---|-----0---0-h2p2---0-|
-2------------------|-3------------------|---2---2--------2---|
--------------------|--------------------|-3------------------|
--------------------|--------------------|--------------------|

--------------------|
-----3---3-h5p5---3-|
---4---4--------4---|
-5------------------|
--------------------|
--------------------|

--------------------|--------------------|--------------------|------|
-----1---1-h3p3---1-|-----1---1-h3p3---1-|--------------------|------|
---2---2--------2---|---2---2--------2---|-----0---0-h2p2---0-|---pc-|
-2------------------|-3------------------|---2---2--------2---|------|
--------------------|--------------------|-3------------------|-2----|
--------------------|--------------------|--------------------|----- |

--------------------|--------------------|--------------------|
-----1---1-h3p3---1-|-----1---1-h3p3---1-|--------------------|
---2---2---per--2---|---2---2---per--2---|-----0---0-h2p2---0-|
--------------------|--------------------|---2---2---per--2---|
-0------------------|--------------------|-3------------------|
--------------------|-1------------------|--------------------|

------------------0-|
-----3---3-h5p5-3---|
---4---4---per------|
-5------------------|
--------------------|
--------------------|

--------------------|--------------------|--------------------|------|
-----1---1-h3p3---1-|-----1---1-h3p3---1-|--------------------|----- |
---2---2---per--2---|---2---2---per--2---|-----0---0-h2p2---0-|---pc-|
--------------------|--------------------|---2---2---per--2---|------|
-0------------------|--------------------|-3------------------|-2----|
--------------------|-1------------------|--------------------|------|

-----------|-----------|-----------|-----------|
---1-----1-|---1-----1-|---1-----1-|-------0---|
---2-per-2-|---2-per-2-|---0-per-0-|-----0---2-|
-----------|-----------|-----------|-----------|
-0---------|-----------|-3---------|-----------|
-----------|-1---------|-----------|-3---------|

-----------------|--------------------|--------------------|-------------|
-----1-h3p3------|-----1-h3p3---------|---1-----1----------|------3----0-|
---2---per-------|---2---per----------|---0-per-0----------|-3s5--4----0-|
-----------------|--------------------|--------------------|-------------|
-0---------------|--------------------|-0------------------|-------------|
-----------------|-1------------------|--------------------|--------3----|

-----------|-----------|-----------|----------0---|
---1-----1-|---1-----1-|---1-----1-|--------3---2-|
---2-per-2-|---2-per-2-|---0-per-0-|-3s5--4-------|
-----------|-----------|-----------|--------------|
-0---------|-----------|-3---------|--------------|
-----------|-1---------|-----------|--------------|

-----------------|--------------------|--------------------|-0-----------|
-----1-h3p3------|-----1-h3p3---------|---1-----1----------|-0-----------|
---2---per-------|---2---per----------|---0-per-0----------|-0---pc------|
-----------------|--------------------|--------------------|-0-----------|
-0---------------|--------------------|-0------------------|-2-----------|
-----------------|-1------------------|--------------------|-------------|

--------|--------------------|--------------------|-----------|
-1------|-1---1--------------|--1---1-------------|-1--1s3--3-|
-2--per-|-2---2----per-------|--0---0---per-------|-2--2s4--4-|
-2------|-3---3--------------|--2---2-------------|-2--2s4--4-|
-0------|--------------------|--3---3-------------|-0---------|
--------|-1---1--------------|--------------------|-----------|

--------|--------------------|--------------------|----------|
-1------|-1---1--------------|--1---1-------------|-1--0-0-0-|
-2--per-|-2---2----per-------|--0---0---per-------|-0--0-0-0-|
-2------|-3---3--------------|--2---2-------------|-2--------|
-0------|--------------------|--3---3-------------|-3--2-2-2-|
--------|-1---1--------------|--------------------|----------|

--------|--------------------|--------------------|-----------|
-1------|-1---1--------------|--1---1-------------|-1--1s3--3-|
-2--per-|-2---2----per-------|--0---0---per-------|-2--2s4--4-|
-2------|-3---3--------------|--2---2-------------|-2--2s4--4-|
-0------|--------------------|--3---3-------------|-0---------|
--------|-1---1--------------|--------------------|-----------|

--------|--------------------|--------------------|---------|
-1------|-1---1--------------|--1---1-------------|-1--0----|
-2--per-|-2---2----per-------|--0---0---per-------|-0--0-pc-|
-2------|-3---3--------------|--2---2-------------|-2--0----|
-0------|--------------------|--3---3-------------|-3--2----|
--------|-1---1--------------|--------------------|---------|
            
Hard to play? Try these video lessons and learn fast. | Correct




comments powered by Disqus
↑ Back to top | Tablatures and chords are parodies/interpretations of the original songs. You may use it for private study, scholarship, research or language learning purposes only