» » »

Igor Presnyakov, Nothing Else Matters Tabs (ver.1)

Artists:  A B C D E F G H I J K L M N O P Q R S T U V W X Y Z # 

Nothing Else Matters Tabs (ver.1)

Igor Presnyakov Tabs
 Rating:
3.6/5 (7 votes)
Nothing Else Matters lessons Tabs too difficult? Try these video lessons and learn fast
1
                (Intro)
-----------------------------------------------------------------------------
        Nothing Else Matters Intro - Metallica - Igor Presnyakov
-----------------------------------------------------------------------------
If something is wrong please contact with me via Personal Message in Forum to correct it.


This are my first tabs and I don't know chords. I learn to play guitar from 
tabs only. So don't be so hard with me if I have some wrongs...

Intro:

e|-----------0--------0---------------------------------------------|
B|--------0-----0---------------------------------------------------|
G|-----0-----------0------------------------------------------------|
D|------------------------------------------------------------------|  x3
A|------------------------------------------------------------------|
E|--0---------------------------------------------------------------|


e|-----------0-----2\7--7--------7p0---------------7--7h8p7h8-------|
B|--------0----------------0----------0-----------------------------|
G|-----0--------0-------------0----------0-----0--------------------|
D|------------------------------------------------------------------|
A|------------------------------------------------------------------|
E|--0-------------------0-------------------0---------0-------------|


e|--5--7--5p0-----------3p0--------------------0--0--0--0-----------|
B|-------------------1-------1-----1--------1-----1--1--1-----------|
G|----------------0-------------0--------0--------0--0--0-----------|
D|------------------------------------------------------------------|
A|-------------0----------------------0-----------0--2--3-----------|
E|-----0------------------------------------------------------------|


e|------0h3p0-----------------2h3p2----------------0----------------|
B|-------------1-----------3--------------------0-----0-------------|
G|--0-------------0-----2--------------------0-----------0----------|
D|-------------------0--------------------------------------13------|
A|------------------------------------------------------------------|
E|-----------------------------------3/2--0------------------0------|


e|-----------0--------0-----------0------------------0--------------|
B|--------0-----0--------------0-----0------------0-----0-----------|
G|-----0-----------0--------0-----------0------0-----------0--------|
D|-----------------------------------------13-----------------------|
A|------------------------------------------------------------------|
E|--0--------------------0------------------0-----------------------|


e|-----------------7----------------------5----------------3--------|
B|--------------8-----8----------------6----------------4-----------|
G|-----------7-----------7----------7----------------5--------------|
D|--------9----------------------7----------------5-----------------|  x2
A|-----7--------------------7/5--------------5/3--------------------|
E|--0---------------------------------------------------------------|


e|-----------------7--------------------0--------------0------------|
B|--------------8-----8--------------3--------------1---------------|
G|-----------7-----------7--------0--------------0------------------|
D|--------9--------------------4--------------2---------------------|
A|-----7--------------------5--------------3------------------------|
E|--0---------------------------------------------------------------|


e|-----------------0--------------0-------0-------0-----------------|
B|--------------0--------------0-----0-------0----------------------|
G|-----------3--------------2--------0-------0----------------------|
D|--------0--------------1-----------2\4-----4\5------12------------|
A|----------------------------------------------------12------------|
E|--3-----------------2--------------0-------0--------12------------|
            
Submit corrections

comments powered by Disqus
↑ Back to top | Igor Presnyakov Tabs for Nothing Else Matters. Lyrics for acoustic guitar and electric guitar. 1 Tablatures and chords are parodies/interpretations of the original songs. You may use it for private study, scholarship, research or language learning purposes only