» » »

Igor Presnyakov, Listen To Your Heart Tabs (ver.3)

Artists:  A B C D E F G H I J K L M N O P Q R S T U V W X Y Z # 

Listen To Your Heart Tabs (ver.3)

Igor Presnyakov Tabs
 Rating:
4.6/5 (10 votes)
Listen To Your Heart lessons Tabs too difficult? Try these video lessons and learn fast
                



e|------------3--1--0------------------------3-0------------------------------|
B|--------1------------3--1-1p5---------0-1------3-1-1--------0-3-1-0---------|
G|-----2--------------------------------------------------0-2----------2------|
D|---------------------------------------------------3------------------------|
A|--0-------------------------0---------0-------------------------------------|
E|------------1--------3----------------------------------3-------------------|


e|------------3--1--0------------------------3-0------------------------------|
B|--------1------------3--1-1p5---------0-1------3-1-1--------0-3-1-0---------|
G|-----2--------------------------------------------------0-2----------2------|
D|---------------------------------------------------3------------------------|
A|--0-------------------------0---------0-------------------------------------|
E|------------1--------3----------------------------------3-------------------|


e|----------------0---1--0----------------------------------------------------|
B|--------------1-----------3--1--3-3--1--3--1--------------------------------|
G|------------2---------------------------------------------------------------|
D|----------2-----------------------------------------------------------------|
A|-----0----------------------------------0-----------------------------------|
E|--0-----------------------------3-------------------------------------------|


e|----------------0---1--0--------3-3-3p5--0----------------------------------|
B|--------------1-----------3--1-------------3-1------------------------------|
G|------------2---------------------------------------------------------------|
D|----------2-----------------------------------------------------------------|
A|-----0-----------------------------------0----------------------------------|
E|--0-----------------------------3-------------------------------------------|


e|---------0---1---1----------------------------------------------------3-----|
B|---------1---1---1---1p3---1--3--5------3^5^3p1--3^1--------------1---------|
G|---------2---2---2-----------------------------------2----------2-----------|
D|---------2---3---3----------------------------------------------------------|
A|-----0-------3---3---0---------------------------0--------------------------|
E|--0----------1---1-------------------------------------3--1-----------------|


e|----------------------------------------------------------------------------|
B|--3^5^3p1--3^1---------------1---5-6-5-3------------------------------------|
G|---------------2-----------2------------------------------------------------|
D|----------------------------------------------------------------------------|
A|-----------0---------------------3------------------------------------------|
E|------------------3--1-----------------3------------------------------------|

Hope it helps :P
            
Submit corrections

comments powered by Disqus
↑ Back to top | Igor Presnyakov Tabs for Listen To Your Heart. Lyrics for acoustic guitar and electric guitar. Tablatures and chords are parodies/interpretations of the original songs. You may use it for private study, scholarship, research or language learning purposes only