» » »

Igor Presnyakov, Listen To Your Heart Tabs (ver.2)

Artists:  A B C D E F G H I J K L M N O P Q R S T U V W X Y Z # 

Listen To Your Heart Tabs (ver.2)

Igor Presnyakov Tabs
 Rating:
4/5 (4 votes)
Listen To Your Heart lessons Tabs too difficult? Try these video lessons and learn fast
                hey guys be kind this is my first tab but i think its better than the ones already
existing *muhaha!*
;)
Igor Presnyakov - Listen To Your Heart

Intro:

e|------------3--1--0------------------------3p0-----1------------------------|
B|-----0--1------------3--1-1/5---------0h1------3p1-1----0-3---0h1-1p0-------|
G|-----2--2------------------------------------------2------------------2-----|
D|---------------------------------------------------3------------------------|
A|--0-------------------------0---------0------------3----------0-------------|
E|------------1--------3-----------------------------1--0-3-------------------|

Verse:
e|------------3--1--0------------------------3p0-----1------------------------|
B|-----0--1------------3--1-1/5---------0h1------3p1-1----0-3---0h1-1p0-------|
G|-----2--2------------------------------------------2------------------2-----|
D|---------------------------------------------------3------------------------|
A|--0-------------------------0---------0------------3----------0-------------|
E|------------1--------3-----------------------------1--0-3-------------------|


e|----------------0---1--0----------------------------------------------------|
B|--------------1-1---------3--1--3-3--1-B3p1---------------------------------|
G|------------2---------------------------------------------------------------|
D|----------2-----------------------------------------------------------------|
A|-----0----------------------------------0-----------------------------------|
E|--0-----------------1-----3-----3-------------------------------------------|


e|----------------0---1--0--------3-3-3/5--0----------------------------------|
B|--------------1-1---------3--1-------------3p1------------------------------|
G|------------2---------------------------------------------------------------|
D|----------2-----------------------------------------------------------------|
A|-----0-----------------------------------0----------------------------------|
E|--0-----------------1-----3-----3-3-----------------------------------------|


e|---------0---1---1----------------------------------------1---------2/3-----|
B|---------1---1---1---3---1---3/5--------3/5\3p1h3p1-------1-------1---------|
G|---------2---2---2----------------------------------2-----2-----2-----------|
D|---------2---3---3----------------------------------------3-----------------|
A|-----0-------3---3------------------------------0---------3-----------------|
E|--0----------1---1---3-------3----------3--------------3--1-----------------|

Chorus:
e|---------------------1-1/3-0-1-0---|
B|--3/5\3p1h3p1--------1-1/3-------3-|
G|--------------2------3-3/4-------0-|
D|---------------------3-3/5---------|
A|----------0----------2-2/5-3-3-----|
E|--3---------------3--1-1/3-------3-|

e|------0--3--3/5-3--------1-----------------------------|
B|---0h1------------3--1-1---3/4\3p1---------------------|
G|---------------------2-2-------------------------------|
D|---------------------3-3-------------------------------|
A|---------3-3---------------------3---------------------|
E|---3------------3----1-1-------------------------------|

End on:
|---------------0-|
|-0-1-1h3--1-0--1-|
|---------------2-|
|---------------2-|
|---------------0-|
|-3---3-----------|
            
Submit corrections

comments powered by Disqus
↑ Back to top | Igor Presnyakov Tabs for Listen To Your Heart. Lyrics for acoustic guitar and electric guitar. Tablatures and chords are parodies/interpretations of the original songs. You may use it for private study, scholarship, research or language learning purposes only