>
 >
Beat It Intro

Beat It Intro Guitar Tabs

Igor Presnyakov - Beat It Intro chords, tabs, tablatures, lyrics

Guitar lessons | Add/correct | Request | Top 50 tabs Artists:  A B C D E F G H I J K L M N O P Q R S T U V W X Y Z 0-9

Beat It Intro Guitar Tabs – Igor Presnyakov

CD, Sheet music, Poster

Do you like Beat It Intro? Share with your friends now
Tabs
  Gtr I
|----------|------------------------|--------------|-------------------------|
|----------|------------------------|--------------|-------------------------|
|----------|------------------------|-------2------|-------------------------|
|--------2-|-(2)-----5-2-(2)p0--2s4-|--2-0--0--x-2-|-(2)-----5-2-(2)p0--2s4--|
|--------2-|-(2)---2----------------|----------x-2-|-(2)---2-----------------|
|--------0-|-(0)-3------------------|----------x-0-|-(0)-3-------------------|


|------------|------------------------|
|------------|------------------------|
|----2-------|------------------------|
|--2-0-----2-|-(2)-----5-2-(2)p0--2s4-|
|----------2-|-(2)---2----------------|
|----------0-|-(0)-3------------------|


|--------------|------------------------|-----------|
|--------------|------------------------|-----------|
|-------2------|------------------------|----2------|
|--2-0--0--x-2-|-(2)-----5-2-(2)p0--2s4-|--2-0------|
|----------x-2-|-(2)---2----------------|-----------|
|----------x-0-|-(0)-3------------------|-----------|


   Gtr I
|--7-7--7--(7)---|-10-7--6s7---6s|=7-7----7--(7)---|-5-(5)-5-7\-----3-5-|
|--8-8--8--(8)---|--7-7--6s7---7s|=8-8----8--(8)---|-7--8----7\---------|
|--9-9--9--(9)---|--7-7--6s7---8s|=9-9----9--(9)---|-7-(7)---7\---------|
|--------------0-|--0----0-0-----|---------------0-|-0-------0----------|
|----------------|---------------|-----------------|------------------3-|
|--0-0--0--(0)---|-------------0-|-0-0--0-0--(0)---|--------------------|


|-3---------3---|----------------|---------------|------------|
|---5----5------|-7-5--------7---|-8-------------|------------|
|--------5------|-----7---7------|---9--9-9\---7-|-7--7\------|
|--------5------|-------7--------|---9--9-9\---7-|-7--7\------|
|-3----3-3----3-|-5---5---5----5-|-7-7--7-7\---5-|-5--5\------|
|---------------|----------------|---------------|------------|


   Gtr I
|--7-7--7--(7)---|-10-7--6s7---6s|=7-7----7--(7)---|-5-(5)-5-7\-----3-5-|
|--8-8--8--(8)---|--7-7--6s7---7s|=8-8----8--(8)---|-7--8----7\---------|
|--9-9--9--(9)---|--7-7--6s7---8s|=9-9----9--(9)---|-7-(7)---7\---------|
|--------------0-|--0----0-0-----|---------------0-|-0-------0----------|
|----------------|---------------|-----------------|------------------3-|
|--0-0--0--(0)---|-------------0-|-0-0--0-0--(0)---|--------------------|


|-3---------3---|----------------|-----------7--|-10--7-----6s7-(7)-------|
|---5----5------|-7-5-7------7---|-8------8--8--|--7-(7)-10-6s7-(7)-------|
|--------5------|---------7------|---9--9-9--9--|--7-(7)----6s7-(7)-------|
|--------5------|---------7------|---9--9-9-----|--------------------x-x--|
|-3----3-3----3-|-5---5-5-5----5-|-7-7--7-7-----|--------------------x-x--|
|---------------|----------------|--------------|--------------------x-x--|





Comments


Popular Igor Presnyakov tabs & chords
Beat It Tabs
Beat It 2 Tabs
Hallelujah Tabs
Hes A Pirate Tabs
Listen To Your Heart Tabs
Listen To Your Heart 1 Tabs
Listen To Your Heart 2 Tabs
Mamma Mia Tabs
Snow Hey Oh Intro Tabs
Telephone Intro Tabs


Song lyrics



↑ Back to top | Tablatures and chords are parodies/interpretations of the original songs. You may use it for private study, scholarship, research or language learning purposes only
© 2014 AZChords.com Contact us | Privacy policy | DMCA | Add/correct tabs | Request tabs | Top 50 tabs