» » »

Slow Tabs (ver.1)

Artists:  A B C D E F G H I J K L M N O P Q R S T U V W X Y Z # 

Slow Tabs (ver.1)

Ignite
Rating:
0/5 (0 votes)

Hard to play? Try these video lessons and learn fast.
                   Verse
E|-------------------------------------------------------------|
B|-------------------------------------------------------------|
C|----------------------------------------------------------\--|
D|--8-8-8-8--6--6--8---8-8-8-8--6--6--8------------------------|x4
A|--8-8-8-8--4--6--6---8-8-8-8--4--6--6------------------------|
E|--6-6-6-6-----4------6-6-6-6-----4---------------------------|

   Chorus
E|----------------------------------------------------------|
B|----------------------------------------------------------|
C|----------------------------------------------------------|
D|--8-8-8--9-7-6--6-6-6--4-3---8-8-8--9-7-6--6-6-6--4-3-----|
A|--6-6-6---------4-4-4--------6-6-6---------4-4-4----------|
E|----------------------------------------------------------|

E|----------------------------------------------------------|
B|----------------------------------------------------------|
C|----------------------------------------------------------|
D|--8-8-8--9-7-6--6-6-6--4-3---8-8-8--9-7-6--6--------------|
A|--6-6-6---------4-4-4--------6-6-6---------4--------------|
E|----------------------------------------------------------|

E|----------------------------------------------------------|
B|----------------------------------------------------------|
C|----------------------------------------------------------|
D|--8-8--6--8-8--6--8-8--6--8-------------------------------|
A|--6-6--4--6-6--4--6-6--4--6-------------------------------|
E|----------------------------------------------------------|

   Verse  ->

   Chorus ->

E|--------------------------------------------------------------|
B|--------------------------------------------------------------|
C|--------------------------------------------------------------|
D|--6--3-3-4-3-4-4-3---8-8-8-8---10-10-10-10--6-6-6-6--8-8-8-8--|
A|--4------------------6-6-6-6---8--8--8--8---4-4-4-4--6-6-6-6--|
E|--------------------------------------------------------------|

E|--6-6-6-6--8--8--8--8----9--9--9--9---6-6-6-6--------------------|
B|--7-7-7-7--9--9--9--9----9--9--9--9---7-7-7-7--------------------|
C|--8-8-8-8--10-10-10-10---10-10-10-10--8-8-8-8-----------------\--|
D|--8-8-8-8--10-10-10-10---11-11-11-11--8-8-8-8--------------------|x3
A|--6-6-6-6--8--8--8--8----11-11-11-11--6-6-6-6--------------------|
E|-------------------------9--9--9--9------------------------------|

E|--6-6-6-6--8--8--8--8---9--9--9--9----------------------------|
B|--7-7-7-7--9--9--9--9---9--9--9--9----------------------------|
C|--8-8-8-8--10-10-10-10--10-10-10-10---------------------------|
D|--8-8-8-8--10-10-10-10--11-11-11-11--8-8-8-8-8-8-8-8-8-8------|
A|--6-6-6-6--8--8--8--8---11-11-11-11--8-8-8-8-8-8-8-8-8-8------|
E|------------------------9--9--9--9---6-6-6-6-6-6-6-6-6-6------|

   Chorus (Outro)
E|----------------------------------------------------------|
B|----------------------------------------------------------|
C|----------------------------------------------------------|
D|--8-8-8--9-7-6--6-6-6--4-3---8-8-8--9-7-6--6-6-6--4-3-----|
A|--6-6-6---------4-4-4--------6-6-6---------4-4-4----------|
E|----------------------------------------------------------|

E|-------------------------------------------|
B|-------------------------------------------|
C|-------------------------------------------|
D|--8-8-8--9-7-6--6-6-6--4-3---8-8-8--9-7-6--|
A|--6-6-6---------4-4-4--------6-6-6---------|
E|-------------------------------------------|

E|---------------------------||
B|---------------------------||
C|---------------------------||
D|--6--3-3-4-3-4-4-3--8------||
A|--4-----------------6------||
E|---------------------------||
            
Hard to play? Try these video lessons and learn fast. | Correct




comments powered by Disqus
↑ Back to top | Tablatures and chords are parodies/interpretations of the original songs. You may use it for private study, scholarship, research or language learning purposes only