» » »

Ignite, Poverty For All Tabs (ver.1)

Artists:  A B C D E F G H I J K L M N O P Q R S T U V W X Y Z # 

Poverty For All Tabs (ver.1)

Ignite Tabs
 Rating:
4/5 (5 votes)
Poverty For All lessons Tabs too difficult? Try these video lessons and learn fast
                / - slide
. - palm mute
~ - let ring
() - harmonic

Intro x1
e|-------------------------------------------------------------------------------------|
B|-------------------------------------------------------------------------------------|
G|-------------------------------------------------------------------------------------|
D|-(5)-(5)-(5)-(5)-(5)--(5)-(5)-(5)-(5)-(5)--(5)-(5)-(5)-(5)-(5)--(5)-(5)-(5)-(5)-(5)--|
A|-------------------------------------------------------------------------------------|
D|-------------------------------------------------------------------------------------|

e|-----------------------------(5)-(5)--|
B|---------------------(5)-(5)-(5)-(5)--|
G|-------------(5)-(5)-(5)-(5)-(5)-(5)--|
D|-(5)-(5)-(5)-(5)-(5)-(5)-(5)-(5)-(5)--|
A|-------------(5)-(5)-(5)-(5)-(5)-(5)--|
D|--------------------------------------|


Verse x1
e|---------------------------------------------------------------------|
B|---------------------------------------------------------------------|
G|-7-7-7-7-7/9-9-9--5-5-5-5-5/9-9-9--7-7-7-7-7/9-9-9--5-5-5-5-5/9-9-9--|
D|-7-7-7-7-7/9-9-9--5-5-5-5-5/9-9-9--7-7-7-7-7/9-9-9--5-5-5-5-5/9-9-9--|
A|-5-5-5-5-5/7-7-7--3-3-3-3-3/7-7-7--5-5-5-5-5/7-7-7--3-3-3-3-3/7-7-7--|
D|---------------------------------------------------------------------|

e|--------------------------------------------------------|
B|--------------------------------------------------------|
G|-7-7-7-7-7/9-9-9--5-5-5-5-5/9-9-9--7-7-7-7-7/9-9-9--5~--|
D|-7-7-7-7-7/9-9-9--5-5-5-5-5/9-9-9--7-7-7-7-7/9-9-9--5~--|
A|-5-5-5-5-5/7-7-7--3-3-3-3-3/7-7-7--5-5-5-5-5/7-7-7--3~--|
D|--------------------------------------------------------|


Chorus x1
e|----------------------------------------------------------|
B|----------------------------------------------------------|
G|-7-7-7----------------5-5-5---7-7-7-----------------------|
D|-7-7-7--8-8-8--3-3-3--5-5-5---7-7-7--8-8-8--3-3-3--5-5-5--|
A|-5-5-5--8-8-8--3-3-3--3-3-3---5-5-5--8-8-8--3-3-3--5-5-5--|
D|--------8-8-8--3-3-3-----------------8-8-8--3-3-3--5-5-5--|

e|-------------------------------------------------------------------------------------|
B|-------------------------------------------------------------------------------------|
G|-7-7-7----------------5-5-5---7-7-7--------------------------------------------------|
D|-7-7-7--8-8-8--3-3-3--5-5-5---7-7-7--8-8-8--3-3-3-3-3-3-3-3-3-3-3-3-3-3-3-3-3-3-3-3--|
A|-5-5-5--8-8-8--3-3-3--3-3-3---5-5-5--8-8-8--3-3-3-3-3-3-3-3-3-3-3-3-3-3-3-3-3-3-3-3--|
D|--------8-8-8--3-3-3-----------------8-8-8--3-3-3-3-3-3-3-3-3-3-3-3-3-3-3-3-3-3-3-3--|
					       . . . . . . . . . . . . . . . . . . . .

Verse x1
e|----------------------------------------------------------------------------------|
B|----------------------------------------------------------------------------------|
G|-7-7-7-7-7/10-10-10--5-5-5-5-5/10-10-10---7-7-7-7-7/10-10-10--5-5-5-5-5/10-10-10--|
D|-7-7-7-7-7/10-10-10--5-5-5-5-5/10-10-10---7-7-7-7-7/10-10-10--5-5-5-5-5/10-10-10--|
A|-5-5-5-5-5/-8--8--8--3-3-3-3-3/-8--8--8---5-5-5-5-5/-8--8--8--3-3-3-3-3/-8--8--8--|
D|----------------------------------------------------------------------------------|

e|------------------------------------------------------------------|
B|------------------------------------------------------------------|
G|-7-7-7-7-7/10-10-10--5-5-5-5-5/10-10-10---7-7-7-7-7/10-10-10--5~--|
D|-7-7-7-7-7/10-10-10--5-5-5-5-5/10-10-10---7-7-7-7-7/10-10-10--5~--|
A|-5-5-5-5-5/-8--8--8--3-3-3-3-3/-8--8--8---5-5-5-5-5/-8--8--8--3~--|
D|------------------------------------------------------------------|


Chorus x1
e|----------------------------------------------------------|
B|----------------------------------------------------------|
G|-7-7-7----------------5-5-5---7-7-7-----------------------|
D|-7-7-7--8-8-8--3-3-3--5-5-5---7-7-7--8-8-8--3-3-3--5-5-5--|
A|-5-5-5--8-8-8--3-3-3--3-3-3---5-5-5--8-8-8--3-3-3--5-5-5--|
D|--------8-8-8--3-3-3-----------------8-8-8--3-3-3--5-5-5--|

e|-------------------------------------------------------------------------------------|
B|-------------------------------------------------------------------------------------|
G|-7-7-7----------------5-5-5---7-7-7--------------------------------------------------|
D|-7-7-7--8-8-8--3-3-3--5-5-5---7-7-7--8-8-8--3-3-3-3-3-3-3-3-3-3-3-3-3-3-3-3-3-3-3-3--|
A|-5-5-5--8-8-8--3-3-3--3-3-3---5-5-5--8-8-8--3-3-3-3-3-3-3-3-3-3-3-3-3-3-3-3-3-3-3-3--|
D|--------8-8-8--3-3-3-----------------8-8-8--3-3-3-3-3-3-3-3-3-3-3-3-3-3-3-3-3-3-3-3--|
					      . . . . . . . . . . 

Breakdown x4	     End on
e|------------------|-----|
B|------------------|-----|
G|-7-7-7-7-7-7--10--|-7~--|
D|-7-7-7-7-7-7--10--|-7~--|
A|-5-5-5-5-5-5---8--|-5~--|
D|------------------|-----|


The Price of Freedom x1
e|-----------------------------------------|
B|-----------------------------------------|
G|-7-7-7-7-7/10-10-10--5-5-5-5-5/10-10-10--|
D|-7-7-7-7-7/10-10-10--5-5-5-5-5/10-10-10--|
A|-5-5-5-5-5/-8--8--8--3-3-3-3-3/-8--8--8--|
D|-----------------------------------------|
   . . . . .  .  .  .  . . . . .  .  .  .  
e|--------------------------------------|
B|--------------------------------------|
G|-7-7-7-7-7/10-10-10--5-5-5-5-5-5-5-5--|
D|-7-7-7-7-7/10-10-10--5-5-5-5-5-5-5-5--|
A|-5-5-5-5-5/-8--8--8--3-3-3-3-3-3-3-3--|
D|--------------------------------------|
   . . . . .  .  .  .  . . . . .
Fighting A Revolution x1
e|----------------------------------------------------------------------------------|
B|----------------------------------------------------------------------------------|
G|-7-7-7-7-7/10-10-10--5-5-5-5-5-10-10-10---7-7-7-7-7/10-10-10--5-5-5-5-5-10-10-10--|
D|-7-7-7-7-7/10-10-10--5-5-5-5-5-10-10-10---7-7-7-7-7/10-10-10--5-5-5-5-5-10-10-10--|
A|-5-5-5-5-5/-8--8--8--3-3-3-3-3--8--8--8---5-5-5-5-5/-8--8--8--3-3-3-3-3--8--8--8--|
D|----------------------------------------------------------------------------------|
				  .					   .
e|-------------------------------------------------------------------------|
B|-------------------------------------------------------------------------|
G|-7-7-7-7-7/10-10-10--5-5-5-5-5/10-10-10---7-7-7-7-7/10-10-10--5-5-5-5-5--|
D|-7-7-7-7-7/10-10-10--5-5-5-5-5/10-10-10---7-7-7-7-7/10-10-10--5-5-5-5-5--|
A|-5-5-5-5-5/-8--8--8--3-3-3-3-3/-8--8--8---5-5-5-5-5/-8--8--8--3-3-3-3-3--|
D|-------------------------------------------------------------------------|
								  . . . 
Fifty Years x3
e|---------------------------------------|
B|---------------------------------------|
G|-7-7-7-7--10-10-10--5-5-5-5--10-10-10--|
D|-7-7-7-7--10-10-10--5-5-5-5--10-10-10--|
A|-5-5-5-5---8--8--8--3-3-3-3---8--8--8--|
D|---------------------------------------|
     . . .   		. . .

Where the Casualties x1
e|-------------------------------------------------------|
B|-------------------------------------------------------|
G|-7-7-7-7--10-10-10---5-5-5-5-5-5-5-5--5-5-5-5-5-5-5-5--|
D|-7-7-7-7--10-10-10---5-5-5-5-5-5-5-5--5-5-5-5-5-5-5-5--|
A|-5-5-5-5---8--8--8---3-3-3-3-3-3-3-3--3-3-3-3-3-3-3-3--|
D|-------------------------------------------------------|
                         . . . . . . .

Fill x1
e|-------------------------------------------------------------------------------------|
B|-------------------------------------------------------------------------------------|
G|-------------------------------------------------------------------------------------|
D|-(5)-(5)-(5)-(5)-(5)--(5)-(5)-(5)-(5)-(5)--(5)-(5)-(5)-(5)-(5)--(5)-(5)-(5)-(5)-(5)--|
A|-------------------------------------------------------------------------------------|
D|-------------------------------------------------------------------------------------|

e|-----------------------------(5)-(5)--|
B|---------------------(5)-(5)-(5)-(5)--|
G|-------------(5)-(5)-(5)-(5)-(5)-(5)--|
D|-(5)-(5)-(5)-(5)-(5)-(5)-(5)-(5)-(5)--|
A|-------------(5)-(5)-(5)-(5)-(5)-(5)--|
D|--------------------------------------|

Chorus x1
e|----------------------------------------------------------|
B|----------------------------------------------------------|
G|-7-7-7----------------5-5-5---7-7-7-----------------------|
D|-7-7-7--8-8-8--3-3-3--5-5-5---7-7-7--8-8-8--3-3-3--5-5-5--|
A|-5-5-5--8-8-8--3-3-3--3-3-3---5-5-5--8-8-8--3-3-3--5-5-5--|
D|--------8-8-8--3-3-3-----------------8-8-8--3-3-3--5-5-5--|

e|---------------------------------------------------------------------------|
B|---------------------------------------------------------------------------|
G|-7-7-7----------------5-5-5---7-7-7----------------------------------------|
D|-7-7-7--8-8-8--3-3-3--5-5-5---7-7-7--8-8-8--3-3-3-3-3-3-3-3-3-3-3-3-3-3-3--|
A|-5-5-5--8-8-8--3-3-3--3-3-3---5-5-5--8-8-8--3-3-3-3-3-3-3-3-3-3-3-3-3-3-3--|
D|--------8-8-8--3-3-3-----------------8-8-8--3-3-3-3-3-3-3-3-3-3-3-3-3-3-3--|
					      . . . . . . . . . . 

Outro x4	     End on
e|------------------|-----|
B|------------------|-----|
G|-7-7-7-7-7-7--10--|-7~--|
D|-7-7-7-7-7-7--10--|-7~--|
A|-5-5-5-5-5-5---8--|-5~--|
D|------------------|-----|
            
Submit corrections

comments powered by Disqus
↑ Back to top | Ignite Tabs for Poverty For All. Lyrics for acoustic guitar and electric guitar. Tablatures and chords are parodies/interpretations of the original songs. You may use it for private study, scholarship, research or language learning purposes only