» » »

Ignite, In Moderation Bass tabs (ver.1)

Artists:  A B C D E F G H I J K L M N O P Q R S T U V W X Y Z # 

In Moderation Bass tabs (ver.1)

Ignite Tabs
Rating:
0/5 (0 votes)
In Moderation lessons Tabs too difficult? Try these video lessons and learn fast
                Intro:
G|-------------------------|
D|-------------------------|
A|-----77777777--99999999--|
E|-3~----------------------|

Verse:
G|---------------------------------------------------|
D|---------------------------------------------------|
A|-------7-----------7-----------7----9-9-9--7-7-7---|
E|-4-4-4---7---4-4-4---7---4-4-4---7-----------------|

G|---------------------------------------------|
D|---------------------------------------------|
A|-------7-----------7-----------7------4------|
E|-4-4-4---7---4-4-4---7---4-4-4---7--2--------|

Chorus: 
G|------------------------------------------|
D|------------------------------------------|
A|-------------------------------7777-99-7--|
E|--44444444--77777777--99999999------------|

G|---------------------------------------------|
D|---------------------------------------------|
A|---------------------------------------------|
E|--44444444--77777777--99999999--4-4-4-4-4-2--|

Verse:
G|---------------------------------------------------|
D|---------------------------------------------------|
A|-------7-----------7-----------7----9-9-9--7-7-7---|
E|-4-4-4---7---4-4-4---7---4-4-4---7-----------------|

G|---------------------------------------------|
D|---------------------------------------------|
A|-------7-----------7-----------7------4------|
E|-4-4-4---7---4-4-4---7---4-4-4---7--2--------|

Chorus: 
G|------------------------------------------|
D|------------------------------------------|
A|-------------------------------7777-99-7--|
E|--44444444--77777777--99999999------------|

G|---------------------------------------------|
D|---------------------------------------------|
A|---------------------------------------------|
E|--44444444--77777777--99999999--4-4-4-4-4-2--|

Intro:
G|-------------------------|
D|-------------------------|
A|-----77777777--99999999--|
E|-3~----------------------|

Then: (2x)
G|------------------------------------------------------|
D|------------------------------------------------------|
A|-------7-----------7-----------7----9-9-9-9-9-9-9-9---|
E|-4-4-4---7---4-4-4---7---4-4-4---7--------------------|

Verse: (4x)
G|---------------------------------------------------|
D|---------------------------------------------------|
A|-------7-----------7-----------7----9-9-9--7-7-7---|
E|-4-4-4---7---4-4-4---7---4-4-4---7-----------------|

G|-------------------------------------|
D|-------------------------------------|
A|------------------77777777-99999999--|
E|-3333333333333333--------------------|

Verse:
G|---------------------------------------------------|
D|---------------------------------------------------|
A|-------7-----------7-----------7----9-9-9--7-7-7---|
E|-4-4-4---7---4-4-4---7---4-4-4---7-----------------|

G|---------------------------------------------|
D|---------------------------------------------|
A|-------7-----------7-----------7------4------|
E|-4-4-4---7---4-4-4---7---4-4-4---7--2--------|

Chorus: 
G|------------------------------------------|
D|------------------------------------------|
A|-------------------------------7777-99-7--|
E|--44444444--77777777--99999999------------|

Ending:
G|------------------------------------------------------------|
D|------------------------------------------------------------|
A|------------------------------------------------------------|
E|--44444444--77777777--99999999--4-4-4-4-4-2--4-4-4-4-4-2--4-|
            

comments powered by Disqus
↑ Back to top | Ignite Bass for In Moderation. Lyrics for acoustic guitar and electric guitar. Tablatures and chords are parodies/interpretations of the original songs. You may use it for private study, scholarship, research or language learning purposes only